A Perfect Circle - The Nurse Who Loved Me (Tab)

Buyuknet15.10.2010 - 02:06
*





          Tuning: DADGBE

Gtr I: Strings

Gtr II: Violin

 

 Verse 1

|-------------|-------------|----------------------|

|-^6----^4----|-^6----^7----|----------------------|

|-^6----^3----|-^6----^6----|----------------------|

|-^6----------|-^6----^4----|-^6----^4--3---1------|

|-^4----------|-^4----^4----|-^4----^2----------4--|

|-------^5----|-------^4----|-^3----^1-------------|

 

 

|-------------|---------|-------------|

|-^7----^4----|-^(4)----|-^6----^4----|

|-^6----^5----|-^(5)----|-^6----^3----|

|-^4----^6----|-^(6)----|-^6----------|

|-^4----------|---------|-^4----------|

|-^4----^6----|-^(6)----|-------^5----|

 

 

|-------------|----------------------|-------------|-^4----|

|-^6----^7----|----------------------|-^7----^4----|-^4----|

|-^6----^6----|----------------------|-^6----^5----|-^5----|

|-^6----^4----|-^6----^4--3---1------|-^4----^6----|-^6----|

|-^4----^4----|-^4----^2----------4--|-^4----------|-------|

|-------^4----|-^3----^1-------------|-^4----^6----|-------|

 

 

   Chorus 1

                 3x

|------------------|------------------|

|o-7---7---7---7---|-6---6---4---4---o|

|--6---6---6---6---|-6---6---6---6----|

|--4---4---4-4-4---|-6-6-6---6-6-6----|

|o---4-----0-----0-|-4---4-4---------o|

|--4-----4---------|---------6-----6--|

 

 

|-----------------|----------------|

|-7---7---7---7---|-6---6---^4-----|

|-6---6---6---6---|-6---6---^6-----|

|-4---4---4-4-4---|-6-6-6---^6-----|

|---4-----0-----0-|-4---4-4--------|

|-4-----4---------|---------^6-----|

 

 

 Verse 2

|-----------------|---------------------|---------------------------|

|-6---6---4---4---|--6----6----7----7---|---------------------------|

|-6---6---3---3---|--6----6----6----6---|---------------------------|

|-6---6-----------|--6----6----4----4---|--6----6---^4---3---1------|

|-4-4-4-4---------|--4--4-4-4--4--------|--4----4---^2-----------4--|

|---------5-5---5-|------------4--4---4-|--3--3-3-3-^1--------------|

|

| Gtr II

|-----------------|---------------------|---------------------------|

|-2-1-------------|---------------------|---------------------------|

|-----3-1-3-------|-----1---1-----------|---------1-----------------|

|-----------------|-------3-------3-1-3-|-------3------------4---3--|

|-----------------|---------------------|-----4---------------------|

|-----------------|---------------------|---------------------------|

 

 

|---------------|-^4-----|

|-^7------^4----|-^4-----|

|-^6------^5----|-^5-----|

|-^4------^6----|-^6-----|

|-^4------------|--------|

|-^4------^6----|--------|

|

|---------------|--------|

|---------------|--------|

|----1-3///5----|-(5)----|

|--4------------|--------|

|---------------|--------|

|---------------|--------|

 

 

  Gtr I

|-------------|-------------|----------------------|

|-^6----^4----|-^6----^7----|----------------------|

|-^6----^3----|-^6----^6----|----------------------|

|-^6----------|-^6----^4----|-^6----^4--3---1------|

|-^4----------|-^4----^4----|-^4----^2----------4--|

|-------^5----|-------^4----|-^3----^1-------------|

 

 

|-------------|---------|-------------|

|-^7----^4----|-^(4)----|-^6----^4----|

|-^6----^5----|-^(5)----|-^6----^3----|

|-^4----^6----|-^(6)----|-^6----------|

|-^4----------|---------|-^4----------|

|-^4----^6----|-^(6)----|-------^5----|

 

 

|-------------|----------------------|-------------|-^4----|

|-^6----^7----|----------------------|-^7----^4----|-^4----|

|-^6----^6----|----------------------|-^6----^5----|-^5----|

|-^6----^4----|-^6----^4--3---1------|-^4----^6----|-^6----|

|-^4----^4----|-^4----^2-(2)-(2)--4--|-^4----------|-------|

|-------^4----|-^3----^1-(1)-(1)-(1)-|-^4----^6----|-------|

 

 

   Chorus 2

                3x

|------------------|------------------|

|o-7---7---7---7---|-6---6---4---4---o|

|--6---6---6---6---|-6---6---6---6----|

|--4---4---4---4---|-6---6---6---6----|

|o---------0-0---0-|-4-4-4-4---------o|

|--4-4-4-4---------|---------6-6-6-6--|

 

 

|-----------------|----------------|

|-7---7---7---7---|-6---6---^4-----|

|-6---6---6---6---|-6---6---^6-----|

|-4---4---4---4---|-6---6---^6-----|

|---------0-0---0-|-4-4-4-4--------|

|-4-4-4-4---------|---------^6-----|

 

 

   Interlude

|------------------|-----------------|------------------------|

|o-6---6---4---4---|-6---6---7---7---|------------------------|

|--6---6---3---3---|-6---6---6---6---|------------------------|

|--6---6-----------|-6---6---4---4---|-6---6---^4--3---1------|

|o-4-4-4-4---------|-4-4-4-4-4-------|-4---4---^2----------4--|

|----------5-5---5-|---------4-4---4-|-3-3-3-3-^1-------------|

 

 

|-------------|-^4-----|

|-^7----^4----|-^4----o|

|-^6----^5----|-^5-----|

|-^4----^6----|-^6-----|

|-^4----------|-------o|

|-^4----^6----|--------|

 

 

                3x

|------------------|------------------|

|o-7---7---7---7---|-6---6---4---4---o|

|--6---6---6---6---|-6---6---6---6----|

|--4---4---4-4-4---|-6-6-6---6-6-6----|

|o---4-----0-----0-|-4---4-4---------o|

|--4-----4---------|---------6-----6--|

 

 

|-----------------|----------------|

|-7---7---7---7---|-6---6---^4-----|

|-6---6---6---6---|-6---6---^6-----|

|-4---4---4-4-4---|-6-6-6---^6-----|

|---4-----0-----0-|-4---4-4--------|

|-4-----4---------|---------^6-----|

 

 

   Interlude

|--------------------|---------------------|-------------------------|

|o-6---6----4----4---|--6----6----7----7---|-------------------------|

|--6---6----3----3---|--6----6----6----6---|-------------------------|

|--6---6-------------|--6----6----4----4---|-6---6---^4---3---1------|

|o-4-4-4-4-----------|--4--4-4-4--4--------|-4---4---^2-----------4--|

|-----------5--5---5-|------------4--4---4-|-3-3-3-3-^1--------------|

|

|   Gtr II

|--------------------|---------------------|-------------------------|

|o-------------------|---------------------|-------------------------|

|----6-5-6-----6-5-6-|-(6)-6-5-6-----6-5-6-|-6-6-5-6------6---5---6--|

|--------------------|---------------------|-------------------------|

|o-------------------|---------------------|-------------------------|

|--------------------|---------------------|-------------------------|

 

 

|--------------------|-^4---------|

|-^7-------^4--------|-^4--------o|

|-^6-------^5--------|-^5---------|

|-^4-------^6--------|-^6---------|

|-^4-----------------|-----------o|

|-^4-------^6--------|------------|

|

|--------------------|------------|

|--------------------|-----------o|

|----6-5-6-----6-5-6-|-(6)-6-5-6--|

|--------------------|------------|

|--------------------|-----------o|

|--------------------|------------|

 

 

  Gtr I

|-------------|-------------|-------*|

|-^6----^4----|-^6----^7----|-^6----*|

|-^6----^3----|-^6----^6----|-^6----*|

|-^6----------|-^6----^4----|-^6----*|

|-^4----------|-^4----^4----|-^4----*|

|-------^5----|-------^4----|-------*|

Linkback: https://www.buyuknet.com/a-perfect-circle-the-nurse-who-loved-me-tab-t29577.0.html

Etiket:
 

Bu bilgi size yardimci oldu mu?

EvetHayır
A Perfect Circle - The Nurse Who Loved Me (Tab)
A Perfect Circle - The Nurse Who Loved Me (Tab)
(Ortalama: 5 üzerinden 2.5 - 2 Oy)
2
A Perfect Circle - The Nurse Who Loved Me (Tab)

A Perfect Circle - The Nurse Who Loved Me (Tab) »           Tuning: DADGBE Gtr I: Strings Gtr II: Violin    Verse 1 |-------------|-------------|----------------------|