Aerosmith - Draw The Line (Tab)

Buyuknet15.10.2010 - 02:06
*





          intro

gtr 1

----------------------------------------------------------------------

----------------9--9-9-9-9--9--9-9--9-9-9-9--9-9-9-9--9-9--9-9--9-9-9-

--2--2----------9--9-9-9-9--9--9-9--9-9-9-9--9-9-9-9--9-9--9-9--9-9-9-

--2--2----------9--9-9-9-9--9--9-9--9-9-9-9--9-9-9-9--9-9--9-9--9-9-9-

--0--0----------7--7-7-7-7--7--7-7--7-7-7-7--7-7-7-7--7-7--7-7--7-7-7-

----------------0--0-0-0-0--0--0-0--0-0-0-0--0-0-0-0--0-0--0-0--0-0-0-

 

gtr 2

--------------9--------12------------------------------------------14~--------

-----------------9/12-------/9-------8/9---------------------------------------

--/9---8-/-9--------------------9---------9--------------------14--------14~~-

-------------------------------------------------------------------------------

-------------------------------------------------------------------------------

-------------------------------------------------------------------------------

 

-----------------------5~------3~-

-------------------------5~----5~-

---------------------------2~-----

----------------------------------

-0--2--3--4--3--2--0--------------

----------------------------------

 

-----------------------5~------3~-

-------------------------5~----5~-

---------------------------2~-----

----------------------------------

-0--2--3--4--3--2--0--------------

----------------------------------

 

verse

gtr 1

---------------------------------------------5~-----3~-

-9--9-9-9-9--9-9--9--9-9-9---------------------5~---5~-

-9--9-9-9-9--9-9--9--9-9-9-----------------------2~----

-9--9-9-9-9--9-9--9--9-9-9-----------------------------

-7--7-7-7-7--7-7--7--7-7-7--0-2-3-4-3-2-0--------------

-0--0-0-0-0--0-0--0--0-0-0-----------------------------

 

gtr 2

-----12-------12------12----------19~~----12-/-14--14-

--12-----12------12--------15/17----------12-/-14--14-

------------------------------------------------------

------------------------------------------------------

------------------------------------------------------

------------------------------------------------------

 

gtr 1

---------------------------------------------5~-----3~-

-9--9-9-9-9--9-9--9--9-9-9---------------------5~---5~-

-9--9-9-9-9--9-9--9--9-9-9-----------------------2~----

-9--9-9-9-9--9-9--9--9-9-9-----------------------------

-7--7-7-7-7--7-7--7--7-7-7--0-2-3-4-3-2-0--------------

-0--0-0-0-0--0-0--0--0-0-0-----------------------------

 

gtr 2

-----------------------------19~~----7-------5---------

------9-------------9-------------------75------------

--/9------4----9-------/18-----------------------/5--2-

--------------------------------------------------------

--------------------------------------------------------

--------------------------------------------------------

 

gtr 1

---------------------------------------------------5-------3~-

--10--2---------------------------------------------5~----5~-

-------2------2--/--6----2----------------------------2~-----

--------------2--/--6----2-----------------------------------

-----------------------------0--2--3--4--3--2--0--------------

--------------------------------------------------------------

 

gtr 2

-------12~------------------------7-------5~-

--/12--------/9----------------------75-----

------------------9--------------------------

---------------------------------------------

---------------------------------------------

---------------------------------------------

 

gtr 1

---------------------------------------------5~-----3~-

-9--9-9-9-9--9-9--9--9-9-9---------------------5~---5~-

-9--9-9-9-9--9-9--9--9-9-9-----------------------2~----

-9--9-9-9-9--9-9--9--9-9-9-----------------------------

-7--7-7-7-7--7-7--7--7-7-7--0-2-3-4-3-2-0--------------

-0--0-0-0-0--0-0--0--0-0-0-----------------------------

 

gtr 2

----------------------------

--10--2--------------------

-------2------2--/--6----2-

--------------2--/--6----2-

----------------------------

----------------------------

 

gtr 1

----------------------------------------------------------------------

----------------------------------------------------------------------

--7--7-------7-----9--9-------------10--10--10--10-10-10-10--10-10-10-

--7--7--9p7--7--7--9--9--11p9--9----12--12--12--12-12-12-12--12-12-12-

--5--5-------------7--7--------9----10--10--10--10-10-10-10--10-10-10-

----------------------------------------------------------------------

 

gtr 2

-----------------------------------12~--------12-------------12/13-/-14-

--/7------------/9---------------------12~------------12~----12/13-/-14-

--/7------------/9------------/12-----------------12~--------12/13-/-14-

--/7------------/9------------------------------------------------------

------------------------------------------------------------------------

------------------------------------------------------------------------

 

gtr 1

D D D D D D, E E E E E, G G G G G, D D D D D

 

gtr 2

---------12------15~----

--10/12------/15---------

-------------------------

-------------------------

-------------------------

-------------------------

 

gtr 1- x2

-------------------5~-----3~-

--------------------5~---5~-

-----------------------2~----

-----------------------------

--0-2-3-4-3-2-0--------------

-----------------------------

 

 

gtr 2

--(14)---7------5-------------------------7-------5-

--(14)-----75-------------------------------75----

--(14)----------------------------------------------

-----------------------------------------------------

-----------------------------------------------------

-----------------------------------------------------

 

gtr 1- x4

-------------------5~-----3~-

--------------------5~---5~-

-----------------------2~----

-----------------------------

--0-2-3-4-3-2-0--------------

-----------------------------

 

gtr 1

-------------------------------------------------/-12-------/-12--12-12/14--14~-

--10/17--17~----------3---------12--------12--10-/-12--14---/-12------------14~-

--------------2-----2---0---2-------1412---------------------------------------

----------------/5--------2-----------------------------------------------------

--------------------------------------------------------------------------------

--------------------------------------------------------------------------------

 

--14-----------17--------------14-14~--

---------1715----17-------------------

------14-----------------/14------------

-------------------------/14------------

----------------------------------------

----------------------------------------

 

verse

gtr 2

------------------------------------

------------------------------------

-----------11----12-12-12--12-12-12-

--9--9--9--11----12-12-12--12-12-12-

--7--7--7---------7-----7--7-----7--

--0---------------------------------

 

gtr 1

-----------------------5~------3~-

-------------------------5~----5~-

---------------------------2~-----

----------------------------------

-0--2--3--4--3--2--0--------------

----------------------------------

 

gtr 1

---------------------------------------------5~-----3~-

-9--9-9-9-9--9-9--9--9-9-9---------------------5~---5~-

-9--9-9-9-9--9-9--9--9-9-9-----------------------2~----

-9--9-9-9-9--9-9--9--9-9-9-----------------------------

-7--7-7-7-7--7-7--7--7-7-7--0-2-3-4-3-2-0--------------

-0--0-0-0-0--0-0--0--0-0-0-----------------------------

 

gtr 1

D D D D D D, E E E E E, G G G G G, D D D D D

D D D D D D, E E E E E, G G G G G, D D D D D

 

gtr 2- slide bar is off end of fingerboard at an imaginary 26th fret

 

--/26--------------------------------------19------14~----17-/19~~-------

---------24-----------------------15/17------/14~------------------------

---------------------------------------------------------------------14~~-

---------------------------------------------------------------------14~~-

--------------------------------------------------------------------------

--------------------------------------------------------------------------

 

interlude

gtr 1

--5---------3~-

-----5~-----5~-

--------2~-----

---------------

---------------

---------------

 

--5---------3~-

-----5~-----5~-

--------2~-----

---------------

---------------

---------------

 

 

gtr 2

-----------------12~~~--------------14~~-

---------10-/-12-----------12-/-14-------

--14~~-----------------------------------

--14~~-----------------------------------

-----------------------------------------

-----------------------------------------

 

gtr 1- play in between the ringings

-----------------------5~------3~-

-------------------------5~----5~-

---------------------------2~-----

----------------------------------

-0--2--3--4--3--2--0--------------

----------------------------------

 

gtr 2- let all of them ring

--12------5--------3--5------3-----5------3----5------3----5--

-------------5-----------5------------5------5----5------5----

----------------2----------2-----2------2-----------2---------

--------------------------------------------------------------

--------------------------------------------------------------

--------------------------------------------------------------

 

gtr 1- x4

-----------------------

-----------------------

-----------------------

-----------------------

--0--2--3--4--3--2--0--

-----------------------

 

bridge, play this chord

gtr 1

E E EEEE E E E EE E EEEE E E E EE E EEEE EE E E E EE E EEEE EE E E E EE E  EEEE

 

outro

gtr 1- x8

-----------------------5~------3~-

-------------------------5~----5~-

---------------------------2~-----

----------------------------------

-0--2--3--4--3--2--0--------------

----------------------------------

 

x 8

--14--12--/-14~-

--14--12--/-14~-

-----------------

-----------------

-----------------

-----------------

 

gtr 2

--------------------------------------------------------------------

--------------------------------------------------------------------

--/5--2-------------2-/-5---2---------2---------2--2-----2---2-2--2-

-----------2--4--2--------------4--2------4--2--------2-------------

--------------------------------------------------------------------

--------------------------------------------------------------------

 

-------------------------------------------------/12-12-12-12-12-12-12~-----12-

-------------------------------------------------/12-12-12-12-12-12-12~-----12-

---------------------------/5--4--2--0----2---2-------------------------12----

-----------7-------------------------------------------------------------------

--4--5--6------4--5--6--2------------------------------------------------------

-------------------------------------------------------------------------------

 

                                                           fade out

--------------------------12~------12~------12~------12~----------------

------------------14--12~------12~------12~------12~--------------------

--54--2--0----2--14--------------------------------------5--2----0--2-

----------------------------------------------------------------2-------

------------------------------------------------------------------------

------------------------------------------------------------------------

Linkback: https://www.buyuknet.com/aerosmith-draw-the-line-tab-t29573.0.html

Etiket:
 

Bu bilgi size yardimci oldu mu?

EvetHayır
Aerosmith - Draw The Line (Tab)
Aerosmith - Draw The Line (Tab)
(Ortalama: 5 üzerinden 2.5 - 2 Oy)
2
Aerosmith - Draw The Line (Tab)

Aerosmith - Draw The Line (Tab) »           intro gtr 1 ----------------------------------------------------------------------