Aerosmith - Sweet Emotion (Tab)

Buyuknet15.10.2010 - 02:06
*





          (riff 1)

intro riff AND main chorus riff:

e|-------------------------------|--------------------------------|

b|-------------------------------|--------------------------------|

g|-------------------------------|--------------------------------|

d|-------5p0----7----------------|-----5p0-----7------------------|

a|-(0-0)-----0------0-5p0--0h4p0-|-0--------0----0--5p0--0h4p0--0-|

e|-------------------------------|--------------------------------|

                                   listen to the song a lot

                                   to get a feel for what happens here

     () use only in very

        first measure            

 

repeat 21 times until verse

 

(riff 2)

verse riff: moderate distortion here

e|---------------------------|

b|--3------------------------|

g|--2--2---2-----------------|

d|--0--2---2-----------------|

a|-----0---0---3p0---0-------|

e|-----------------3---0-----|

  "talk bout things and nobody cares...."

 

 

(riff 3)

bridge:  moderate distortion

e|--------------------------------|

b|--------------------------------|

g|--------------------------------|

d|--------------------------------|

a|--5p3---------------------------|

e|-------2-2--0-3-3--0-4-5--------|

 

 

between verses play 4 times

before chorus play 8 times

 

 

CHORUS WILL USE RIFFS 1 AND 4

 

(main chorus riff at top)

(riff 4)

during the chorus there is a distorted riff i beleive its th*

e|---------------------------------------|

b|---------------------------------------|

g|---------------------------------------|

d|------5----7-7---------------5-----7-7-|

a|--0-0---0-------5p0--0h4p--0----0------|

e|---------------------------------------|

  "Sweeeeeeeeeeeet eemoooooooootion..."

 

 

 

 

during the outro there is a distorted rythym riff and i think its:

e|----------------------------------------|

b|----------------------------------------|

g|-----7----9-9---------------7----9-9----|

d|-----7----9-9---------------7----9-9----|

a|-----5----7-7---------------5----7-7----|

e|-0-0---0------5p0--0h4p0--0---0---------|

Linkback: https://www.buyuknet.com/aerosmith-sweet-emotion-tab-t29576.0.html

Etiket:
 

Bu bilgi size yardimci oldu mu?

EvetHayır
Aerosmith - Sweet Emotion (Tab)
Aerosmith - Sweet Emotion (Tab)
(Ortalama: 5 üzerinden 2.5 - 2 Oy)
2
Aerosmith - Sweet Emotion (Tab)

Aerosmith - Sweet Emotion (Tab) »           (riff 1) intro riff AND main chorus riff: e|-------------------------------|--------------------------------|