Almora Şehrazad Tab

Buyuknet20.11.2008 - 11:50
intro
------------------------------------------------------I----------------
------------------------------------------------------I----------------
------------------------------------------------------I----------------
--------------9-9-9--9-9-9---------------9-9-9--9-9-9-I----------------
-6-7-9--7-6---9-9-9--9-9-9--6-7-9--7-6---9-9-9--9-9-9-I----------------
------------8-7-7-7--7-7-7-------------8-7-7-7--7-7-7-I-8-10-8--7-8----
               ı ı ı  ı ı ı               ı ı ı  ı ı ı
              pm

--------------------------------------I--------------------------------
--------------------------------------I--------------------------------
--------------------------------------I--------------------------------
---------------------------------8-9--I--------------------------------
-----------------------6-7--9-10------I--------------------------------
-5-7--5-7--5-7-8---7-8----------------I--------------------------------
  ı ı  ı ı  ı ı ı



söz kısımları
----------------------------------------------------------------------
----------------------------------------------------------------------
-11-11------------------11--11-----------9-9-------------9-9----------
-11-11------------------11--11-----------9-9-------------9-9----------
--9--9-------------------9---9-----------7-7-------------7-7----------
----------------------------------------------------------------------
She tells........land of the fairies   From land....and from the....
Tales of angels     tales of demons   Darkness of hell  lights of heaven





2X (A)
--------------------------------------------------------I--------------
--------------------------------------------------------I--------------
--------------------------------------------------------I--------------
-9-9-9--9-9-9-9-9-9-9---10-10-10-10-10-10--7-7-7-7-7-7--I--------------
-9-9-9--9-9-9-9-9-9-9---10-10-10-10-10-10--7-7-7-7-7-7--I--------------
-7-7-7--7-7-7-7-7-7-7----8--8--8--8--8--8--5-5-5-5-5-5--I--------------

She enchanted the sultan with her magic stories
  And each night she told him the tales as the dreams
  She was the beautiful like the voice of the rain
  Hate of the sultan ends the cause shehrazad's tales




nakarat
----------------------------------------------------------------------
----------------------------------------------------------------------
----------------------------------------------------------------------
-9-9-9-9-9-9--10-10-10-10-10-10--7-7-7-7-7-7---10-10-10--8-8--9-------
-9-9-9-9-9-9--10-10-10-10-10-10--7-7-7-7-7-7---10-10-10--8-8--9-------
-7-7-7-7-7-7---8--8--8--8--8--8--5-5-5-5-5-5----8--8--8--6-6--7-------
  ı ı ı ı ı     ı  ı  ı  ı  ı     ı ı ı ı ı     
pm

In the thousand sleepless nights  Tell a tale for your life,
Until sunrise, one more night  Tell a tale shehrazad
Demons and angels, heaven and hell,Tell a tale for your life
Until sunrise, one more night Tell a tale shehrazad

   (tekrar introdaki olay uygulanıyor)

not1:sözleri akorların altına yerleştrimesi zor şarkıyla beraber
      çalarsanız uydurabilirsiniz

nakarattan sonra:
solo kısmındaki ritm,üstteki (A) ritmiyle aynı şekilde

Linkback: https://www.buyuknet.com/almora-sehrazad-tab-t9497.0.html

Etiket:
 

Bu bilgi size yardimci oldu mu?

EvetHayır
Almora Şehrazad Tab
Almora Şehrazad Tab
(Ortalama: 5 üzerinden 2.5 - 2 Oy)
2
Almora Şehrazad Tab

Almora Şehrazad Tab »intro ------------------------------------------------------I---------------- ------------------------------------------------------I----------------