Astral Romance

Buyuknet15.10.2010 - 02:05 |
E5 C5 B5 A5 A5 B5 C5 E5

e:-----------------------------------------------------------------------------|

B:-----------------------------------------------------------------------------|

G:-----------------------------------------------------------------------------|

D:-2---2-2-2-4-5-0---0-0-0-4-5-------------------------------------------------|

A:-----------------------------3---3--2--0---0--2--3--2------------------------|

E:----------------------------------------------------0------------------------|



E5 D5 C5 C5 B5 A5 A5 B5 C5 E5

e:-----------------------------------------------------------------------------|

B:-----------------------------------------------------------------------------|

G:-0---0-0-0-2-4-5-2---2-2-2-4&7-5---5--4--2---2--4--5--4----------------------|

D:-----------------------------------------------------------------------------|

A:-----------------------------------------------------------------------------|

E:-----------------------------------------------------------------------------|

E5 D5 C5 C5 B5 A5 A5 B5 C5 E5

e:-----------------------------------------------------------------------------|

B:-----------------------------------------------------------------------------|



G:-0---0-0-0-2-4-5-2---2-2-2-4&7-5---5--4--2-----------------------------------|

D:---------------------------------------------2--4--5--2-2*-------------------|

A:---------------------------------------------0--2--3--2----------------------|

E:------------------------------------------------------0----------------------|



e:-----------------------------------------------------------------------------|

B:-----------------------------------------------------------2 TIMES-----------|

G:-----------------------------------------------------------------------------|

D:-----------------------------------------------------------4-5-7-5-----------|

A:-----3------3------3------3------1*--------3------3------3-2-3-5-3-----------|

E:-0-0-1--0-0-1--0-0-1--0-0-1--0-0-------0-0-1--0-0-1--0-0-1-------------------|

p.m. . . . . . . . . . . . . . . . . . . . . . . . . . . .





VERSE 1 (0:51)

e:-----------------------------------------------------------------------------|

B:-----------------------------------------------------------------------------|

G:-----------------------------------------------------------------------------|

D:-----5-----4-----7-----5-----4&5-------5-----4-----7-----5-----4&5-----------|

A:-0-0-3-0-0-2-0-0-5-0-0-3-0-0-2&3---0-0-3-0-0-2-0-0-5-0-0-3-0-0-2&3-----------|

E:-----------------------------------------------------------------------------|



e:-----------------------------------------------------------------------------|

B:-----------------------------------------------------------------------------|

G:-----5-----7-----5-----7-----5-------5-----7-----5-----7-----2---------------|

D:-0-0-3-0-0-5-0-0-3-0-0-5-0-0-3---0-0-3-0-0-5-0-0-3-0-0-5-0-0-0---------------|

A:-----------------------------------------------------------------------------|

E:-----------------------------------------------------------------------------|



A5

e:-----------------------------------------------------------------------------|

B:-----------------------------------------------------------------------------|

G:-----------------------------------------------------------------------------|

D:-----5-----4-----7-----5-----4&5-------5-----4-----7-----5-----4&5-----------|

A:-0-0-3-0-0-2-0-0-5-0-0-3-0-0-2&3---0-0-3-0-0-2-0-0-5-0-0-3-0-0-2&3-----------|

E:-----------------------------------------------------------------------------|



D5 D5

e:-----------------------------------------------------------------------------|

B:-----------------------------------------------------------------------------|

G:-----5-----7-----5-----7-----5-------5-----7-----5-----7-----2---------------|

D:-0-0-3-0-0-5-0-0-3-0-0-5-0-0-3---0-0-3-0-0-5-0-0-3-0-0-5-0-0-0---------------|

A:-----------------------------------------------------------------------------|

E:-----------------------------------------------------------------------------|



e:----------------------|

B:----------------------|

G:----------------------|

D:----------------------|

A:-----3------3---3-----|

E:-0-0-1-0--0-1-0-1-0---|

p.m. . . . . . . .

Repeat from the beginning of the verse



e:-----------------------------------------------------------------------------|

B:-----------------------------------------------------------------------------|

G:-----------------------------------------------------------------------------|

D:-5-5---3-3&5-5---8-8-8----10-10-10-------------------------------------------|

A:-5-5---3-3&5-5---6-6-6...--8--8--8...----------------------------------------|

E:-3-3---1-1&3-3---------------------------------------------------------------|



VERSE 2 (2:03)

e:-----------------------------------------------------------------------------|

B:-----------------------------------------------------------------------------|

G:-----------------------------------------------------------------------------|

D:----------------------------------------------3------------------------------|

A:----------------------------------------------3-----6-5-3-5------------------|

E:-3-3-6-3-3-6-3-3-5-3-3-5-3-3-5--3-3-6-3-3-6-3-1---3--------------------------|

p.m. . . . . . . . . . . . . . . . . . . .



e:-----------------------------------------------------------------------------|

B:-----------------------------------------------------------------------------|

G:-----------------------------------------------------------------------------|

D:--------------------------------8-8-8----10-10-10----------------------------|

A:--------------------------------6-6-6...--8--8--8...-------------------------|

E:-3-3-6-3-3-6-3-3-5-3-3-5-3-3-5-----------------------------------------------|

p.m. . . . . . . . . . . . . .



Repeat verse 2



(2:31) I'm not really sure about that...

e:-----------------------------------------------------------------------------|

B:-----------------------------------------------------------------------------|

G:-----------------------------------------------------------------------------|

D:-----5-----3-----------------------5-----3-----------------------------------|

A:---5-----5-------5-----6-5-3-----5-----5-------6-5-3-1-2-2-2-2---------------|

E:-3-----3-----3-3---3-3-------6-3-----3-----3-3---------0-0-0-0---------------|

p.m. . .



e:-----------------------------------------------------------------------------|

B:----------------------------------------------------------2 TIMES------------|

G:-----------------------------------------------------------------------------|

D:-----------------------------------------------------------------------------|

A:-6-6-6-6-6---7-6-4---6-6-6-6-6---7-6-4-2-2-2-2-2-2---------------------------|

E:-4-4-4-4-4-4-------7-4-4-4-4-4-4---------0-0-0-0-0---------------------------|

p.m. . . . . . . . . . . . . . .



e:-----------------------------------------------------------------------------|

B:-----------------------------------------------------------------------------|

G:-----------------------------------------------------------------------------|

D:--[aaaboard]------------5-4-2---2-4-5---2------------------------------------|

A:------------------------3-2-0---0-2-3---2------------------------------------|

E:----------------------------------------0------------------------------------|



E5 D5 C5 C5 B5 A5 A5 B5 C5 E5

e:-----------------------------------------------------------------------------|

B:-------------------------------------------------------------------2 TIMES---|

G:-0---0-0-0-2-4-5-2---2-2-2-4&7-5---5--4--2---2--4--5--4----------------------|

D:-----------------------------------------------------------------------------|

A:-----------------------------------------------------------------------------|

E:-----------------------------------------------------------------------------|



Rhythm under guitar solo

e:-----------------------------------------------------------------------------|

B:-----------------------------------------------------------------------------|

G:-------7-----5-----2-----------7-----5-----2---------------------------------|

D:-2-----7-----5-----2-----2-----7-----5-----2---------------------------------|

A:-2-----5-----3-----0-----2-----5-----3-----0---------------------------------|

E:-0-----------------------0---------------------------------------------------|



e:-----------------------------------------------------------------------------|

B:-----------------------------------------------------------------------------|

G:-----------------------------------------------------------------------------|

D:-------7-7-7-5-5-5-2-2-2-------7-7-7-5-5-5-4-2---2-4-5---2-------------------|

A:-2-2-2-5-5-5-3-3-3-0-0-0-2-2-2-5-5-5-3-3-3-2-0---0-2-3---2-------------------|

E:-0-0-0-------------------0-0-0---------------------------0-------------------|

p.m. . . . . . . . . . . . . . . . . . .



e:-----------------------------------------------------------------------------|

B:-17---17-17-17-19-20---------------19-20-----------------------------17-17'--|

G:---------------------19---19-19-19-------17---17-16-14---14-14-16-17---------|

D:-----------------------------------------------------------------------------|

A:-----------------------------------------------------------------------------|

E:-----------------------------------------------------------------------------|

Linkback: https://www.buyuknet.com/astral-romance-t29507.0.html

Etiket:
 

Bu bilgi size yardimci oldu mu?

EvetHayır
Astral Romance
Astral Romance
(Ortalama: 5 üzerinden 2.5 - 2 Oy)
2
Astral Romance

Astral Romance »E5 C5 B5 A5 A5 B5 C5 E5 e:-----------------------------------------------------------------------------|