Bliss (Tab)

Buyuknet15.10.2010 - 02:05
*





          Legend

------

x - scratch

: - let ring

pm - palm mute



Normal Tuning

Play with medium distortion



Intro (after aaaboard)



E ---------x-x-x-----x-x-x-x-x--------------x-x-x-----x-x-x-x-x----

B ---------x-x-x-----x-x-x-x-x--------------x-x-x-----x-x-x-x-x----

G -5-5-5-5-x-x-x-3-3-x-x-x-x-x-3-3----------x-x-x-5-5-x-x-x-x-x-5-5

D -5-5-5-5-x-x-x-3-3-x-x-x-x-x-3-3--3-3-3-3-x-x-x-5-5-x-x-x-x-x-5-5

A -3-3-3-3-x-x-x-1-1-x-x-x-x-x-1-1--3-3-3-3-x-x-x-3-3-x-x-x-x-x-3-3

E ---------x-x-x-----x-x-x-x-x------1-1-1-1-x-x-x-----x-x-x-x-x----



E ---------x-x-x-----x-x-x-x-x--------------x-x-x-----x-x-x-x-x----

B ---------x-x-x-----x-x-x-x-x--------------x-x-x-----x-x-x-x-x----

G -3-3-3-3-x-x-x-----x-x-x-x-x------5-5-5-5-x-x-x-5-5-x-x-x-x-x-5-5

D -3-3-3-3-x-x-x-3-3-x-x-x-x-x-3-3--5-5-5-5-x-x-x-5-5-x-x-x-x-x-5-5

A -1-1-1-1-x-x-x-3-3-x-x-x-x-x-3-3--3-3-3-3-x-x-x-3-3-x-x-x-x-x-3-3

E ---------x-x-x-1-1-x-x-x-x-x-1-1----------x-x-x-----x-x-x-x-x----



Verse is bass only



Chorus (Follow drum beat with chords)



C x 24 Am x 8



E ------0----------0-----

B ------1----------2-----

G ------0----------2-----

D ------2----------2-----

A ------3----------0-----

E ------0----------0-----



Post chorus



E ---------x-x-x-----x-x-x-x-x--------------x-x-x-----x-x-x-x-x----

B ---------x-x-x-----x-x-x-x-x--------------x-x-x-----x-x-x-x-x----

G -5-5-5-5-x-x-x-3-3-x-x-x-x-x-3-3----------x-x-x-5-5-x-x-x-x-x-5-5

D -5-5-5-5-x-x-x-3-3-x-x-x-x-x-3-3--3-3-3-3-x-x-x-5-5-x-x-x-x-x-5-5



A -3-3-3-3-x-x-x-1-1-x-x-x-x-x-1-1--3-3-3-3-x-x-x-3-3-x-x-x-x-x-3-3

E ---------x-x-x-----x-x-x-x-x------1-1-1-1-x-x-x-----x-x-x-x-x----



E ---------x-x-x-----x-x-x-x-x--------------x-x-x-----x-x-x-x-x----

B ---------x-x-x-----x-x-x-x-x--------------x-x-x-----x-x-x-x-x----

G -3-3-3-3-x-x-x-----x-x-x-x-x------5-5-5-5-x-x-x-5-5-x-x-x-x-x-5-5

D -3-3-3-3-x-x-x-3-3-x-x-x-x-x-3-3--5-5-5-5-x-x-x-5-5-x-x-x-x-x-5-5

A -1-1-1-1-x-x-x-3-3-x-x-x-x-x-3-3--3-3-3-3-x-x-x-3-3-x-x-x-x-x-3-3

E ---------x-x-x-1-1-x-x-x-x-x-1-1----------x-x-x-----x-x-x-x-x----



Repeat chorus x 2



Interlude (aaaboard + bass only)



Repeat chorus x 2



To finish play Dm x1 - 1

3

2

0

x

x

Linkback: https://www.buyuknet.com/bliss-tab-t29487.0.html

Etiket:
 

Bu bilgi size yardimci oldu mu?

EvetHayır
Bliss (Tab)
Bliss (Tab)
(Ortalama: 5 üzerinden 2.5 - 2 Oy)
2
Bliss (Tab)

Bliss (Tab) »           Legend ------ x - scratch : - let ring pm - palm mute Normal Tuning Play with medium distortion Intro (after