Break On Through

Buyuknet15.10.2010 - 02:06
*





          Break On Through









Artist:  The Doors

 Album:  The Doors

  Song:  Break On Through





Intro&Verse:

============



Emajor

       sl                  .  .          sl               .

e-|--------------------------------------|------------------------------------

B-|-------------------------------------.|------------------------------------

G-|--------------------------------------|------------------------------------

D-|---------------2--0-----2--2-----0---.|----------2--0-----2--2-----0--2----

A-|--------------------(2)-------2-------|---------------(2)-------2----------

E-|----12'---(0)-------------------------|-12'--(0)---------------------------



You know the day destroys the night,       night divides the day





{* The two ghost notes above are played at different parts of the song.  *}

{* By listening to the album, you can tell when to play them.            *}







Bridge:

=======



Dmajor



e-|----2-------2------------2--------2----------------------------------------

B-|----3-------3------------3--------3----------------------------------------

G-|----2-------2------------2--------2----------------------------------------

D-|----0-------0------------0--------0----------------------------------------

A-|---(0)-----(0)----------(0)------(0)---------------------------------------

E-|---------------------------------------------------------------------------



      Tried to run,         tried to hide





Chorus:

=======



Emajor                                       __________________________________

                                           |3

e-|----------------------------------------|----------------------------------

B-|----------------------------------------|----------------------------------

G-|----------------------0h2p0-------------|---------------------0h2p0--------

D-|---------------0-1h2----------2---0--2--|--------------0-1h2---------2-----

A-|--------0h1-2---------------------------|-------0h1-2----------------------

Kaynak: Bydigi Forum

Linkback: https://www.buyuknet.com/break-on-through-t29551.0.html

Etiket:
 

Bu bilgi size yardimci oldu mu?

EvetHayır
Break On Through
Break On Through
(Ortalama: 5 üzerinden 2.5 - 2 Oy)
2
Break On Through

Break On Through »           Break On Through Artist:  The Doors  Album:  The Doors   Song:  Break On Through Intro&Verse: