By The Way

Buyuknet15.10.2010 - 02:04
*





          Intro (x1)

G|10-10-10-10-10-10-10-10|9-9-9-9-9-9-9-9|----------------|----------------|

D|-----------------------|---------------|7-7-7-7-7-7-7-7-|-7-7-7-7-7-7-7-7|

A|-----------------------|---------------|----------------|----------------|

E|-----------------------|---------------|----------------|----------------|



G|-10-10-10-10-10-10-10-10-|-------------------------|-9-9-9-9-9-9-9-9-|

D|-------------------------|-10-10-10-10-10-10-10-10-|-----------------|

A|-------------------------|-------------------------|-----------------|

E|-------------------------|-------------------------|-----------------|



G|-9-9-9-9-9-9-&14-|-----------------|-5-5-5-5-5-5-5-5-|-2-2-2-2-2-2-2-2-|

D|-----------------|-3-3-3-3-3-3-3-3-|-----------------|-----------------|

A|-----------------|-----------------|-----------------|-----------------|

E|-----------------|-----------------|-----------------|-----------------|



G|-2-2-2-2-2-2-&17-|-17-17-17-17-17-17-17-17-|-19-19-19-19-19-19-19-19-|

D|-----------------|-------------------------|-------------------------|

A|-----------------|-------------------------|-------------------------|

E|-----------------|-------------------------|-------------------------|



G|-14-14-14-14-14-14-14-14-|-15-15-15-15-15-15-15-15-|

D|-------------------------|-------------------------|

A|-------------------------|-------------------------|

E|-------------------------|-------------------------|



Verse (x4)

G|-----------------------|-----------------------|

D|--------3--------------|--------3--------------|

A|-----3h5---x-3h5-x-3h5-|-----3h5---x-0h3-------|

E|-0-0-------------------|-0-0-------------x-5p3-|



G|-----------------------|-----------------------|

D|--------3--------------|-----------------------|

A|-----3h5---x-3h5-x-3h5-|-----3h5---555&666-----|

E|-0-0-------------------|-0-0-------------------|





1st Chorus (x 1)

G|---------------5-|-5---5--55-5-5-5-|

D|-3---3--33-3-----|-----------------|

A|-----------------|-----------------|

E|-----------------|-----------------|



G|-7---7--77-7-7-7-|-7---7--77-7-75---|

D|-----------------|---------------73-|

A|-----------------|------------------|

E|-----------------|------------------|



G|---------------5-|-5---5--55-5-5-5-|

D|-3---3--33-3-----|-----------------|

A|-----------------|-----------------|

E|-----------------|-----------------|



G|------------------|------------------|

D|------------------|------------------|

A|-0---0---0-0-0----|-x---1-1-1-1-1-1--|

E|------------------|------------------|





Verse (x4)



Intro (x1)



1ST Solo (x1)

G|-19-17----19-17----19-17----19-17----19-17----|

D|-------19-------19-------19-------19-------19-|

A|----------------------------------------------|

E|----------------------------------------------|



G|-17-14----14-17-14----17-14------------|

D|-------17----------17-------17-14-(14)-|

A|---------------------------------------|

E|---------------------------------------|



G|-12-10----12-10----12-10----10------------------------------|

D|-------12-------12-------12----12-10-12-10------------------|

A|-------------------------------------------10--5--3---------|

E|-----------------------------------------------------3--1&2-|



Verse (x2)



2ND Chorus (x1)

G|----------------------------------------------------------------------|

D|------8-9-1010101010-12121212-10-----------8-9-10101010-777777-888888-|

A|-8888----------------------------12---8888----------------------------|

E|----------------------------------------------------------------------|



G|---------------------------------------------|

D|-----------7-8-10--(10)-10-10-10-10-9-10-&12-|

A|-8-8-8-8-8-----------------------------------|

E|---------------------------------------------|



G|-------------------------------------------------------|

D|-14--15-14-15-17--15-14-12--12-10----12-10-12-10-------|

A|----------------------------------12-------------12-10-|

E|-------------------------------------------------------|



G|---------------------------------------|

D|-------8-9-1010101010---7777777-888888-|

A|-88888---------------------------------|

E|---------------------------------------|



Guitar until drums come in then you start the solo



2ND Solo (x1)

G|-17-14-|-------------------------------|

D|-------|-17-15-------15----17-17-17-17-|

A|-------|-------17-------17-------------|



E|-------|-------------------------------|



G|-----------------------------------------|

D|-17s19s17S15-17-15-----15----15----15-17-|

A|-------------------15-----17----17-------|

E|-----------------------------------------|



G|-------------------------------------------------|

D|-14s12----------12-13s14-14-14S17-17-17-17-14-12-|



A|-------15-12-15----------------------------------|

E|-------------------------------------------------|



G|-----------------------------------------|

D|-14-12-15-12-----------------------------|

A|-------------15-14-15-14---15-14---15-14-|

E|-----------------------------------------|





Guitar solo and riff (x8) end

G|------------------------|---|

D|------------------------|---|

A|-5-5-51-1-1&8-8-83-3-3&-|-5-|

E|------------------------|---|



You can do lots of fills on this riff so just muck around

and make up some or you can work out what flea plays your

self I will give you one example.



G|-----------3------------|

D|------------------------|

A|-5-5-51-1---------3-3-4-|

E|-------------0-1-1------|



LAYOUT

INTRO X1

VERSE X4

1ST CHORUS X1

VERSE X4

INTRO X1

1ST SOLO X1

2ND VERSE X2

REST TILL DRUMS COME IN

2ND SOLO X1

GUITAR SOLO X8

Linkback: https://www.buyuknet.com/by-the-way-t29427.0.html

Etiket:
 

Bu bilgi size yardimci oldu mu?

EvetHayır
By The Way
By The Way
(Ortalama: 5 üzerinden 2.5 - 2 Oy)
2
By The Way

By The Way »           Intro (x1) G|10-10-10-10-10-10-10-10|9-9-9-9-9-9-9-9|----------------|----------------|