Du Hast

Buyuknet15.10.2010 - 02:04
*





          Intro: (0:17)w&Heavy aaaal Distortion

Eb|---------------------------------|

Bb|---------------------------------|

Gb|---------------------------------|

Db|-7&5-222222-75-2222222222--------|

Ab|-7&5-222222-75-2222222222--------|

Eb|-5&3-000000-53-0000000000--------|

Pm ...... ..........



Eb|---------------------------------|

Bb|---------------------------------|

Gb|---------------------------------|

Db|-7&5-222222-75-2222222222--------|

Ab|-7&5-222222-75-2222222222--------|

Eb|-5&3-000000-53-0000000000--------|

Pm ...... ..........



Eb|---------------------------------|

Bb|---------------------------------|

Gb|---------------------------------|

Db|-7&5-222222-75-2222222222--------|

Ab|-7&5-222222-75-2222222222--------|

Eb|-5&3-000000-53-0000000000--------|

Pm ...... ..........



Eb|---------------------------------|

Bb|---------------------------------|

Gb|---------------------------------|

Db|-5&7-777777777-------------------|

Ab|-5&7-777777777-------------------|

Eb|-3&5 555555555-------------------|

Pm .........





Second Part With Lyrics and aaaboard

(1:32)

Eb|---------------------------------|

Bb|---------------------------------|

Gb|---------------------------------|

Db|-7&5-222222-75-2222222222--------|

Ab|-7&5-222222-75-2222222222--------|

Eb|-5&3-000000-53-0000000000--------|

Pm ...... ..........

Willst du bist der toch..

Eb|---------------------------------|

Bb|---------------------------------|

Gb|---------------------------------|

Db|-5&7-777777777--5&7-777777777----|

Ab|-5&7-777777777--5&7-777777777----|

Eb|-3&5 555555555--3&5 555555555----|

Pm ......... .........

Treu ihr sain fur alle tage



Eb|---------------------------------|



Bb|---------------------------------|

Gb|---------------------------------|

Db|-7&10 101010-12-9-9999999999-----|

Ab|-7&10-101010-12-9-9999999999-----|

Eb|-5&8 888888-10-7-7777777777-----|

Pm ...... ..........

jaaaaaaaaa nein!



Eb|---------------------------------|

Bb|---------------------------------|

Gb|---------------------------------|

Db|-7&5-222222-75-2222222222--------|

Ab|-7&5-222222-75-2222222222--------|

Eb|-5&3-000000-53-0000000000--------|

Pm ...... ..........

jaaaaaaaaa nein



Do that twice then once with this aaaboard

thing.



Eb|-12p10------------------10----|

Bb|-------10-13-12---12&13----12-|

Gb|----------------9-------------|



Eb|-12p10------------------10----|

Bb|-------10-13-12---12-13----12-|

Gb|----------------9-------------|

Linkback: https://www.buyuknet.com/du-hast-t29440.0.html

Etiket:
 

Bu bilgi size yardimci oldu mu?

EvetHayır
Du Hast
Du Hast
(Ortalama: 5 üzerinden 2.5 - 2 Oy)
2
Du Hast

Du Hast »           Intro: (0:17)w&Heavy aaaal Distortion Eb|---------------------------------| Bb|---------------------------------|