Ferhat Göçer Dök Zülfünü TAB

Buyuknet15.10.2010 - 02:00 |
b||--5-6-5-3-1-0---5-4-5-6-----------------------------------------
 

g||--------------2----------------------------------------

 

Dök zülfünü meydane gel,

 

b||-6-5-3-1-0-0-------0----------------

g||-----------  2-1-2--------------

 

Sür atını ferzana gel,

 

b||-5-6-5-3-1-8-8-7-8-10-5----------------------------

g||---------------------------------------

 

 

Al daireni hengâma gel.

 

b||-5-10-8-6-5-3-5-6-5-3-1----------------------------

 

g||---------------------------------------

 

Bülbül senin gülşen senin

 

b||-3-5-6-5-9-6---------------------------------

g||----------------------------------------

 

 

yaaaaaar

 

b||-6-5-4-5-1-3-5-6-5-3-1-3-5-5-6-5-3-1-0--------------------

g||---------------------------------------2----------------

 

 

Yar amman amman.

Aşıkınım hayli zeman,

 

b||-3-6-5-3-1-0-1-0-1-5-3-5-1-0---0-1-0--------------------

g||---------------------------- 2--------2-1-2-

Dil muntazır teşrifine, gel amman amman

Linkback: https://www.buyuknet.com/ferhat-gocer-dok-zulfunu-tab-t29212.0.html

Etiket:
 

Bu bilgi size yardimci oldu mu?

EvetHayır
Ferhat Göçer Dök Zülfünü TAB
Ferhat Göçer Dök Zülfünü TAB
(Ortalama: 5 üzerinden 2.5 - 2 Oy)
2
Ferhat Göçer Dök Zülfünü TAB

Ferhat Göçer Dök Zülfünü TAB »b||--5-6-5-3-1-0---5-4-5-6-----------------------------------------   g||--------------2----------------------------------------   Dök