Film Müzikleri - Düğün Şarkıcısı Tab

Buyuknet15.10.2010 - 02:07
*





          ----------------------------------------------------------------------

-----3--5--6--5--3--1----------------3--5-3-2-3-5-6-5-6-8-6-8--

-2---------------------3--2-3-2-3-0--------------------------------

----------------------------------------------------------------------

----------------------------------------------------------------------

----------------------------------------------------------------------



-------------------------------------------------------------------

-10-8-6-5-----8-6-5-3-----10-8-6-5-----8-6-5-3--------------

-------------------------------------------------------------------

-------------------------------------------------------------------

-------------------------------------------------------------------

-------------------------------------------------------------------







---------------------------------------------------------------------------

-6-5-3-1-5-3-1-------3-1------------------1-3-3-3-3-3-3---------3---

-----------------3---------3-2-2----2-3--------------------2-2---------

---------------------------------------------------------------------------

---------------------------------------------------------------------------

---------------------------------------------------------------------------


Linkback: https://www.buyuknet.com/film-muzikleri-dugun-sarkicisi-tab-t29591.0.html

Etiket:
 

Bu bilgi size yardimci oldu mu?

EvetHayır
Film Müzikleri - Düğün Şarkıcısı Tab
Film Müzikleri - Düğün Şarkıcısı Tab
(Ortalama: 5 üzerinden 2.5 - 2 Oy)
2
Film Müzikleri - Düğün Şarkıcısı Tab

Film Müzikleri - Düğün Şarkıcısı Tab »           ----------------------------------------------------------------------