Film Müzikleri - Gecenin Öteki Yüzü Tab

Buyuknet15.10.2010 - 02:07
*





          Gecenin Öteki Yüzü / Zuhal Olcay'ın başrolde oynadığı TRT tv filminin müziği



Q Q Q Q Q Q Q H H.

E||--------12----------------10----------|--------8---------------------|

B||--------------------------------------|------------------------------|

G||--------------------------------------|------------------------------|

D||--14----------14----12----------12----|--10--------------------------|

A||--------------------------------------|------------------------------|

E||--------------------------------------|------------------------------|





Q Q Q Q Q Q Q H H.

-----------------------------------|-----------------------------|

--------10---------------8---------|-------6---------------------|

-----------------------------------|-----------------------------|

--10----------10----9---------9----|--7--------------------------|

-----------------------------------|-----------------------------|

-----------------------------------|-----------------------------|





Q Q Q Q Q Q Q H H.

--------------------------------|-----------------------------|

-------6--------------5---------|-------3---------------------|

--------------------------------|-----------------------------|

--7---------7----5---------5----|--3--------------------------|

--------------------------------|-----------------------------|

--------------------------------|-----------------------------|





Q Q Q Q Q Q

--------------------------------|-------|-------|-------||

--------------------------------|-------|-------|-------||

--------------------------------|-------|-------|-------||

-------2--------------0---------|-------|-------|-------||

--3---------3----2---------2----|-------|-------|-------||

--------------------------------|-------|-------|-------||



Linkback: https://www.buyuknet.com/film-muzikleri-gecenin-oteki-yuzu-tab-t29593.0.html

Etiket:
 

Bu bilgi size yardimci oldu mu?

EvetHayır
Film Müzikleri - Gecenin Öteki Yüzü Tab
Film Müzikleri - Gecenin Öteki Yüzü Tab
(Ortalama: 5 üzerinden 2.5 - 2 Oy)
2
Film Müzikleri - Gecenin Öteki Yüzü Tab

Film Müzikleri - Gecenin Öteki Yüzü Tab »           Gecenin Öteki Yüzü / Zuhal Olcay'ın başrolde oynadığı TRT tv filminin müziği Q Q Q Q Q Q Q H H.