Film Müzikleri - He Is Pirate TAB

Buyuknet15.10.2010 - 02:07 |
E|--------------|--------------|--------------|---|

B|--------------|--------------|--------------|-7-|

G|--------------|--------------|--------------|-7-|

D|--------------|--------------|--------------|---| Intro

A|-5-55-55-5555-|-5-55-55-5555-|-5-55-55-5555-|-5-|

E|--------------|--------------|--------------|---|



E|---------|---------|---------|---------|

B|---------|---5-6-6-|-6-8-5-5-|---------|

G|---5-7-7-|-7-------|---------|--7-5-7--|

D|-7-------|---------|---------|---------|

A|---------|---------|---------|---------|

E|---------|---------|---------|---------|



E|---------|---------|---------|---------|

B|---------|---5-6-6-|-6-8-5-5-|---------|

G|---5-7-7-|-7-------|---------|--7-5-7--|

D|-7-------|---------|---------|---------|

A|---------|---------|---------|---------|

E|---------|---------|---------|---------|



E|---------|---------|---5-6-6-|-5-3-5---|

B|---------|---5-8-8-|-8-------|-------3-|

G|---5-7-7-|-7-------|---------|---------|

D|-7-------|---------|---------|---------|

A|---------|---------|---------|---------|

E|---------|---------|---------|---------|



E|---------|----5----|---------|---------|

B|-----6-6-|--7------|---6-5-5-|--6---5--|

G|-5-7-----|------7--|-8-------|----7----|

D|---------|---------|---------|---------|

A|---------|---------|---------|---------|

E|---------|---------|---------|---------|



E|------------|-5-------|-6-------|--------|

B|------5-6-8-|---6-3---|---6-3---|--------|

G|--7-7-------|-------2-|-------3-|--2-3-2-|

D|------------|---------|---------|--------|

A|------------|---------|---------|--------|

E|------------|---------|---------|--------|



E|-5-5-5-6-5-|-3-3-3-3-5--|-5-5-5-6-5-|---------|

B|-----------|------------|-----------|-6-6-5-3-|

G|-----------|------------|-----------|---------|

D|-----------|------------|-----------|---------|

A|-----------|------------|-----------|---------|

E|-----------|------------|-----------|---------|



Solo

E|-------|---5---|-------|---5---|---------|--------|--------|--------|

B|---5-6-|-8---8-|-6-5-6-|-8---8-|----8-10-|-10-8---|--------|--------|

G|-7-----|-------|-------|-------|-10------|------9-|-10-9-7-|-9----7-|

D|-------|-------|-------|-------|---------|--------|--------|---10---|

A|-------|-------|-------|-------|---------|--------|--------|--------|

E|-------|-------|-------|-------|---------|--------|--------|--------|



E|-------|-------|-----5-|-------|---------|----5-6-|--------|--------|

B|---5-6-|-5-6-8-|-6-8---|-8-6---|----5-6--|--8-----|---8-6--|-8-5-3--|

G|-7-----|-------|-------|-----7-|--7------|--------|-7------|--------|

D|-------|-------|-------|-------|---------|--------|--------|--------|

A|-------|-------|-------|-------|---------|--------|--------|--------|

E|-------|-------|-------|-------|---------|--------|--------|--------|



E|-----5-6-5-5-5-5-3-|-3-----------|

B|-5-----------------|---6-5-6-5-3-|

G|---5---------------|-------------|

D|-------------------|-------------|

A|-------------------|-------------|

E|-------------------|-------------|



E|-----5-6-5-5-8-5-3-|-3-----------|

B|-------------------|---6-5-6-5-3-|

G|-------------------|-------------|

D|-------------------|-------------|

A|-------------------|-------------|

E|-------------------|-------------|



E|-------5-------6-------5-5-8-5-3-|-3-----------|

B|-3-5-6---3-5-6---3-5-6-----------|---6-5-6-5-3-|

G|---------------------------------|-------------|

D|---------------------------------|-------------|

A|---------------------------------|-------------|

E|---------------------------------|-------------| 2x

Linkback: https://www.buyuknet.com/film-muzikleri-he-is-pirate-tab-t29598.0.html

Etiket:
 

Bu bilgi size yardimci oldu mu?

EvetHayır
Film Müzikleri - He Is Pirate TAB
Film Müzikleri - He Is Pirate TAB
(Ortalama: 5 üzerinden 2.5 - 2 Oy)
2
Film Müzikleri - He Is Pirate TAB

Film Müzikleri - He Is Pirate TAB »E|--------------|--------------|--------------|---| B|--------------|--------------|--------------|-7-|