Film Müzikleri - Inspector Gadget TAB

Buyuknet15.10.2010 - 02:07 |
e|---------------------------------------

B|---------------------------------------

G|---------------------------------------

D|---------------------------------------

A|---------0--2----2---1---1---0---0-----

E|--0-2-3--------3-------2-------1-------





e|---------------------------------------

B|---------------------------------------

G|---------------------------------------

D|---------------2-0---------------------

A|-------0-2---2-----2---0-1s2-2---------

E|-0-2-3-----3---------3---------3p0-----

Linkback: https://www.buyuknet.com/film-muzikleri-inspector-gadget-tab-t29601.0.html

Etiket:
 

Bu bilgi size yardimci oldu mu?

EvetHayır
Film Müzikleri - Inspector Gadget TAB
Film Müzikleri - Inspector Gadget TAB
(Ortalama: 5 üzerinden 2.5 - 2 Oy)
2
Film Müzikleri - Inspector Gadget TAB

Film Müzikleri - Inspector Gadget TAB »e|--------------------------------------- B|--------------------------------------- G|---------------------------------------