Film Müzikleri - Süt Kardeşler TAB

Buyuknet15.10.2010 - 02:07 |
e------0-1-3-0---------------000---5--------0-1-3-0-----------0--------

B--2-3---------3-2-------222-----------2-3----------3-2---2-3---3-2----

G------------------3-222--------------------------------3-----------3-2



e------------------------------------5-6-5----------------

B--3-5--6-5---5----------------5-6-8-------8-6-5----------

G-----------7---7-5-7-5-7--5-7-------------------7-5-33-22



e--------------------------------------------------5-6-5------------------

B----------------------------------------------7-8-------8-7--------------

G--4-5-7-4-0---4-5-7-4-0---4-5-7-8-7-5-7-5-4-5---------------8-7--55-33-22



e--6-5-------------------5-6-5-------5--10-9-10-12-13-12-10-9---------------

B------8-6-5-------5-6-8-------8-7-8--------------------------11-10-88-66-55

G------------7-6-7----------------------------------------------------------



e--3-5--6-5---------------------5-6-5-----------------

B-----------8-6-5-6-------5-6-8-------8-6-5-----------

G-------------------7-5-7-------------------7--6-7-8-9



B------555-6-5-6-8-5-6-5-----------5-6-8-6-5------------

G--6-7-------------------7----6-7------------7-6--------

D------------------------------------------------8-7-5-7

Linkback: https://www.buyuknet.com/film-muzikleri-sut-kardesler-tab-t29604.0.html

Etiket:
 

Bu bilgi size yardimci oldu mu?

EvetHayır
Film Müzikleri - Süt Kardeşler TAB
Film Müzikleri - Süt Kardeşler TAB
(Ortalama: 5 üzerinden 2.5 - 2 Oy)
2
Film Müzikleri - Süt Kardeşler TAB

Film Müzikleri - Süt Kardeşler TAB »e------0-1-3-0---------------000---5--------0-1-3-0-----------0-------- B--2-3---------3-2-------222-----------2-3----------3-2---2-3---3-2----