Jimi Hendrix - All Along The Watchtower(tab)

Buyuknet15.10.2010 - 02:05 |
Jimi Hendrix - All Along The Watchtower(tab)

Intro:

acoustic 12-string:

(B B C#m C#m C#m C#m

B B A A A A)2x


Şarkı sırasında bu akorlar basılıyo


C#m B A B

----------------------------------------------------------------

-----12--14(16)-14(16)-14(16)-14(16)~~---14(16)14-12------------

--&13------------------------------------------------11(13)-11~-

----------------------------------------------------------------

----------------------------------------------------------------

----------------------------------------------------------------



-----------------------------------------------------------------

--------------------------------------------------------12(14)~'-

-----9-11--11(13)-11-11(13)~--11(13)11--9---11-11p9--------------

-&11------------------------------------------------11-----------

-----------------------------------------------------------------

-----------------------------------------------------------------


Sözler sırasında bu çalınıyo


C#m B A B

-------------------------------------------------------------

-----5-------7p5--------------5&7'5--------------------------

-----4-6p4-------4---2--------4&5'4--OR---2h4p2-----4h6p4----

-4h6-----------------2----4&6-------------------4&6-------6--

---------------------0---------------------------------------

-------------------------------------------------------------



solo 1:

--9-----------------------------------------------------------

-12(14)~---12(14)-12p9-----------------------------12-14(16)~-

-----------------------11-9-11(13)~~-------9-11&13------------

--------------------------------------9h11--------------------

--------------------------------------------------------------

--------------------------------------------------------------



-----------------------------------------

-14p12----14(17)~--14(17)14p12----14-12~-

-------13----------------------13--------

-----------------------------------------

-----------------------------------------

-----------------------------------------



----------------9--------9-----------9-----------------------------

--------------9---12(14)---12-9----9---12-9------------------------

-----9-11(13)-------------------12----------12-11-9----11(13)--9~~-

-&11------------------------------------------------11-------------

-------------------------------------------------------------------

-------------------------------------------------------------------



Solo 2:

---------------------------------------------------------------

----------------------------------------12(14)(14)(14)(14)12-9-

----------------------9-9--9-9&11------------------------------

-----9-11-11p9----&11-------------11~~-------------------------

--11-----------11----------------------------------------------

---------------------------------------------------------------



---------------------------------------------9--------12-14(16)~-

-------------------------------------------9----12&14------------

-11-9-11(13)-11(13)~--11(13)11p9----11(13)-----------------------

---------------------------------11------------------------------

-----------------------------------------------------------------



-----------------------------------------------------------------



-14(16)14p12-14-14(16)-14-12----12----------------------

-----------------------------14----14(16)14(16)-14(16)~-

--------------------------------------------------------

--------------------------------------------------------

--------------------------------------------------------

--------------------------------------------------------

slide&delay octavia

-----------------------------------------------------------------------

-14-14(16)-14-14(16)-14-----------15'''''2-----------------------------

------------------------13~~-------------------------------9&&11-9-----

----------------------------------15'''''2---4&&11--11&&14---------11~-

-----------------------------------------------------------------------

-----------------------------------------------------------------------



-----------------------------------

-11&&14----------------------------

----------9&11--11&&13--11--9--11'-

-11&&14----------------------------

-----------------------------------

-----------------------------------

wawa

-12--12&14--14&16--16&19--19'-----------9----9------------9--------------

--------------------------------------9---12---9--------9---12-9---------

--9---9&11--11&13--13&16--16'--11(13)------------11(13)----------11(13)~-

-------------------------------------------------------------------------

-------------------------------------------------------------------------

-------------------------------------------------------------------------



--------9--------9-11-9------9-11-9----------9-

-12(14)---12(14)--------9-12--------9-12(14)---

-----------------------------------------------

-----------------------------------------------

-----------------------------------------------



-----------------------------------------------



-------9-----------------------9--------9------------------

-12(14)-----------------12(14)---12(14)----14(16)(16)(16)'-

---------11(13)-11-9-11------------------------------------

-----------------------------------------------------------

-----------------------------------------------------------

-----------------------------------------------------------



-11--9-9-9-9-9------7--9p7-7-----5------------------

--9--9-9-9-9-9------7--7-7-7-----5--&8-8-8-8-&10-10-

----------------6&8-----------&6----&9-9-9-9-&11-11-

----------------------------------------------------

----------------------------------------------------

----------------------------------------------------



------9-9-11p9-9'----------9p7-7----5--5---------------

------9-9----9-9'-------7--7---7----5--5---x-x-x-x-x-x-

--------------------&8--8--8---8--&6-------------------

-10&11-------------------------------------------------

-------------------------------------------------------

-------------------------------------------------------



-----9--11p9--9--9-----7-9p7-7-----5--------------------

-----9---9-9--9--9-----7-7-7-7-----5--8-8-8-8&10-10&13'-

--------------------&8----------&6----9-9-9-9&11-11&14'-

-&11----------------------------------------------------

--------------------------------------------------------

--------------------------------------------------------



--------9-9-9-9-9-9-9--------11-11-11-11--------12-12-12-12-

-12(14)---------------14(16)-------------15(17)-------------

------------------------------------------------------------

------------------------------------------------------------

------------------------------------------------------------

------------------------------------------------------------



--------14-14-14-14-------16-16-16-16--------16-

-17(19)-------------19(21)------------19(21)----

------------------------------------------------

------------------------------------------------

------------------------------------------------

------------------------------------------------

Linkback: https://www.buyuknet.com/jimi-hendrix-all-along-the-watchtowertab-t29521.0.html

Etiket:
 

Bu bilgi size yardimci oldu mu?

EvetHayır
Jimi Hendrix - All Along The Watchtower(tab)
Jimi Hendrix - All Along The Watchtower(tab)
(Ortalama: 5 üzerinden 2.5 - 2 Oy)
2
Jimi Hendrix - All Along The Watchtower(tab)

Jimi Hendrix - All Along The Watchtower(tab) »Jimi Hendrix - All Along The Watchtower(tab) Intro: acoustic 12-string: (B B C#m C#m C#m C#m B B A A A A)2x Şarkı sırasında bu akorlar