Johnson Jack - Aint Loved At All(tab)

Buyuknet15.10.2010 - 02:05 |
Johnson Jack - Aint Loved At All(tab)

Intro x2 {up strokes}

e-------------------------------------------------|

B-------------------------------------------------|

G----9---------9--x---8-x-8&10-10--x--10-9--7--5--|

D----9h11p9----9--x---9-x-9&11-11--x--x--x--x--x--|

A-----------11--------9-x-8&11-11--x--8--7--5--3--|

E--0----------------7-7---7&9--9------------------|


{Repeat all of this, but stop here^} Gma Ama

Now Play this e--x-x-x--x-x-x--------|


B--3-3-3--5-5-5--------|

G--4-4-4--6-6-6--------|

D--5-5-5--7-7-7--------|

A--5-5-5--7-7-7--------|

E--3-3-3--5-5-5--------|

Verse E5 Ama Bma

e------------------- 2nd part e--x---x-x---x---x-x--|

B------------------- B--5---5-5---7---7-7--|

G----9--9---9---9--- G--6-x-6-6---8-x-8-8--|

D----9--9---9---9--- D--7-x-7-7---9-x-9-9--|

A----7-(7)-(7)-(7)-- A--7-x-7-7---9-x-9-9--|

E--0----7---9---7--- E--5---5-5---7---7-7--|

After that it goes:

e----------------------------------| Back to verse

B----------------------------------|

G----9---------9-x----8--10-x---8--|

D----9h11p9----9-x----9--11-x---9--|

A-----------11--------9--11-x---9--|

E--0----------------7-7--9----7-7--|


Bridge

e-----------------| 2nd time is in a diff. rythm

B--9---7---5---4--|

G--9---7---5---4--|

D--9---7---5---4--|

A--7---5---3---2--|

E-----------------|

Back to verse and end on an open E string

Linkback: https://www.buyuknet.com/johnson-jack-aint-loved-at-alltab-t29524.0.html

Etiket:
 

Bu bilgi size yardimci oldu mu?

EvetHayır
Johnson Jack - Aint Loved At All(tab)
Johnson Jack - Aint Loved At All(tab)
(Ortalama: 5 üzerinden 2.5 - 2 Oy)
2
Johnson Jack - Aint Loved At All(tab)

Johnson Jack - Aint Loved At All(tab) »Johnson Jack - Aint Loved At All(tab) Intro x2 {up strokes} e-------------------------------------------------|