La Woman

Buyuknet15.10.2010 - 02:06
*





          Intro:



E --9---------|--7---------|--5---------5'3|

B ------------|------------|---------------|

G ------------|------------|---------------|

D ------------|------------|---------------|

A ------------|------------|---------------|

E ------------|------------|---------------|



E -2h3----2--3--2---0h2-|------------------------|

B ----------------------|-2h3----2--3--2--0--2~~-|

G ----------------------|------------------------|

D ----------------------|------------------------|

A ----------------------|------------------------|

E ----------------------|------------------------|





E -------------------|------------------------|

B -------------------|------------------------|

G -6h7p6--7p6-----6--|--6p7--6--7--6----------|

Kaynak: Bydigi Forum

Linkback: https://www.buyuknet.com/la-woman-t29552.0.html

Etiket:
 

Bu bilgi size yardimci oldu mu?

EvetHayır
La Woman
La Woman
(Ortalama: 5 üzerinden 2.5 - 2 Oy)
2
La Woman

La Woman »           Intro: E --9---------|--7---------|--5---------5'3| B ------------|------------|---------------| G