Mor ve Ötesi - Bir Derdim Var Gitar Akorları - Notaları

Buyuknet15.10.2010 - 02:00 |
İntro

E||----------------------------------|----------------------------------|

B||--------------14--15--14----------|--------------14--15--14----------|

G||----------16--------------16------|----------16--------------16------|

D||------16----------------------16--|------16----------------------16--|

A||--14------------------------------|--14------------------------------|

E||----------------------------------|----------------------------------|

----------------------------------|----------------------------------| 

--------------14--15--14----------|--------------14--15--14----------|

----------16--------------16------|----------16--------------16------|

------16----------------------16--|------16----------------------16--|

--14------------------------------|--14------------------------------|

----------------------------------|----------------------------------|
 

----------------------------------|----------------------------------| 

--------------14--15--14----------|--------------14--15--14----------|

----------16--------------16------|----------16--------------16------|

------16----------------------16--|------16----------------------16--|

--14------------------------------|--14------------------------------|

----------------------------------|----------------------------------|

 

----------------------------------|----------------------------------| 

--------------14--15--14----------|--------------14--15--14----------|

----------16--------------16------|----------16--------------16------|

------16----------------------16--|------16----------------------16--|

--14------------------------------|--14------------------------------|

----------------------------------|----------------------------------|

 

----------------------------------|----------------------------------| 

--------------14--15--14----------|--------------14--15--14----------|

----------16--------------16------|----------16--------------16------|

------16----------------------16--|------16----------------------16--|

--14------------------------------|--14------------------------------|

----------------------------------|----------------------------------|

 

----------------------------------|----------------------------------| 

--------------14--15--14----------|--------------14--15--14----------|

----------16--------------16------|----------16--------------16------|

------16----------------------16--|------16----------------------16--|

--14------------------------------|--14------------------------------|

----------------------------------|----------------------------------|

 

----------------------------------|----------------------------------| 

--------------14--15--14----------|--------------14--15--14----------|

----------16--------------16------|----------16--------------16------|

------16----------------------16--|------16----------------------16--|

--14------------------------------|--14------------------------------|

----------------------------------|----------------------------------|

 

----------------------------------|----------------------------------|----|----|----|----|----|----| 

--------------14--15--14----------|----------------------------------|----|----|----|----|----|----|

----------16--------------16------|----------16----------14--16--14--|----|----|----|----|----|----|

------16----------------------16--|------16------16------------------|----|----|----|----|----|----|

--14------------------------------|--14--------------14--------------|----|----|----|----|----|----|

----------------------------------|----------------------------------|----|----|----|----|----|----|

 Solo Kısmı:

--------------------------------|-----------------------14---------|

-----------------14--15--14-----|-------17--15--14----------17--15-|

-------------16--------------16-|-------------------16-------------|

---------16---------------------|---16-----------------------------|

-----14-------------------------|----------------------------------|

--------------------------------|----------------------------------|

 

----------------------------------|------------------------------------| 

---14--15--------------15---------|-------14---------------------------|

----------------------------------|---------------14-------------------|

-----------17--16--17------17--16-|---17------17------17--19-17-16--17-|

----------------------------------|------------------------------------|

----------------------------------|------------------------------------|

 

--------------------------------|-----------------------14---------| 

-----------------14--15--14-----|-------17--15--14----------17--15-|

-------------16--------------16-|-------------------16-------------|

---------16---------------------|---16-----------------------------|

-----14-------------------------|----------------------------------|

--------------------------------|----------------------------------|
 

 

----------------------------------|------------------------------------| 

---14--15--------------15---------|-------14---------------------------|

----------------------------------|---------------14-------------------|

-----------17--16--17------17--16-|---17------17------17--19-17-16--17-|

----------------------------------|------------------------------------|

----------------------------------|------------------------------------|

 

--------------------------------|----------------------------------| 

-----------------14--15--14-----|-------------------14--15--14-----|

-------------16--------------16-|---------------16--------------16-|

---------16---------------------|---16------16---------------------|

-----14-------------------------|-------14-------------------------|

--------------------------------|----------------------------------|
 


----------------------------------|----------------------------------| 

-------------------14--15--14-----|-------------------14--15--14-----|

---------------16--------------16-|---------------16--------------16-|

---16------16---------------------|---16------16---------------------|

-------14-------------------------|-------14-------------------------|

----------------------------------|----------------------------------|

 

----------------------------------|----------------------------------| 

-------------------12--14--12-----|-------------------12--14--12-----|

---------------14--------------14-|---------------14--------------14-|

---16------14---------------------|---14------14---------------------|

-------12-------------------------|-------12-------------------------|

----------------------------------|----------------------------------|

 

----------------------------------|----------------------------------| 

-------------------12--14--12-----|-------17--15--14------14------14-|

---------------14--------------14-|-------------------16------16-----|

---14------14---------------------|---14-----------------------------|

-------12-------------------------|----------------------------------|

----------------------------------|----------------------------------|

 

-------------------14--15--14-----|-------------------14--15--14-----| 

---15----------17--------------17-|---------------17--------------17-|

-----------16---------------------|---16------16---------------------|

-------14-------------------------|-------14-------------------------|

----------------------------------|----------------------------------|

----------------------------------|----------------------------------|

 

-------------------14--15--14-----|-------------------14--15--14-----| 

---------------17--------------17-|---------------17--------------17-|

---16------16---------------------|---16------16---------------------|

-------14-------------------------|-------14-------------------------|

----------------------------------|----------------------------------|

----------------------------------|----------------------------------|

 

--------------------------------|----------------------------------| 

-----------------14--15--14-----|-------------------14--15--14-----|

-------------16--------------16-|---------------16--------------16-|

---------16---------------------|---16------16---------------------|

-----14-------------------------|-------14-------------------------|

--------------------------------|----------------------------------|

 
 

----------------------------------|----------------------------------| 

-------------------14--15--14-----|--12--14--14--15--15--17--17--19--|

---------------16--------------16-|----------------------------------|

---16------16---------------------|----------------------------------|

-------14-------------------------|----------------------------------|

----------------------------------|----------------------------------|

 

Bm

bir derdim var artık tutamam içimde

A

gitsem nereye kadar

 

kalsam neye yarar

Em

hiç anlatamadım hiç anlamadılar

Bm

herkes neden düşman herkes neden düşman

A

unuttuk hepsini nuhun nefesini

Em G A

gelme yanıma sen başkasın ben başka

 

Solo Bm G Bm G

 

Bm

bir derdim var artık tutamam içimde

A

gitsem nereye kadar

 

kalsam neye yarar

Em

hiç anlatamadım hiç anlamadılar

 

D F#

bak bu son perde oyun yok bundan sonra

Bm G

ışık yok hiçbir şey yok

Em G Em G A Bm

bir derdim var bir derdim var bir derdim var artık tutamam içimde

Linkback: https://www.buyuknet.com/mor-ve-otesi-bir-derdim-var-gitar-akorlari-notalari-t29226.0.html

Etiket:
 

Bu bilgi size yardimci oldu mu?

EvetHayır
Mor ve Ötesi - Bir Derdim Var Gitar Akorları - Notaları
Mor ve Ötesi - Bir Derdim Var Gitar Akorları - Notaları
(Ortalama: 5 üzerinden 2.5 - 8 Oy)
8
Mor ve Ötesi - Bir Derdim Var Gitar Akorları - Notaları

Mor ve Ötesi - Bir Derdim Var Gitar Akorları - Notaları »İntro E||----------------------------------|----------------------------------|