Mor ve Ötesi - Küçük Sevgilim (Tab)

Buyuknet15.10.2010 - 02:03 |
Intro x4 defa, 00:00 - 00:36

-------------------------------------------------------------------

-------------------------------------------------------------------

----------0-------0-------------0------2----0------0------------------

-------2-------2------3-----3----3-------------3----------------

----0-------0-------0-----0------------------------------------

-------------------------------------------------------------------



--------------------------------------------------------------------------

--------------------------------------------------------------------------

---------0-------0------------------4-----------4-------2---------------

------3-------3-----------------2------------2--------2----------------

---2-------2--------2--0-------------------------------------------------

----------------------------4------------4--------------------------------







00:36 - 00:55

-----------------------------------------------------------------

-----------------------------------------------------------------

-------5------5-----------5-----5- ----4-----4-------4--------

----3------3-----3-----3-----3------3-----3------3-----3----

-0------0------0-----0-----0------------------2------2----2--

-----------------------------------------------------------------



----------------------------------------------------------------

----------------------------------------------------------------

------------4--------4----------5-----------------------------

---------2---------2---------2--------------------------------

----------------------------------------------------------------

----4--------4-------------------------------------------------





----------------------------------------------------------------------

----------------------------------------------------------------------

-----5---------5--------------5-----5----4-------4---------4------

--3--------3------3-------3-----3------3------3---------3-------3-

0--------0-------0------0-----0------------2----------2--------2--

-----------------------------------------------------------------------





----------------------------------------------------------------------

-----------------------------------------------------------------------

-----------5-----4----------------------------------------------------

--------2-----2----2-------------------------------------------------

-----------------------------------------------------------------------

----4------------------4----------------------------------------------







x2 defa, 00.55 - 01:13

-----------------------------------------------------------------------

-------------8----------8------------------8------10---8------8---

---------9----------9---------10--------10-----10----------10------

-----7----------7----------7----------7----------------------------------

---------------------------------------------------------------------------

---------------------------------------------------------------------------





-----------------------------------------------------------------

----------8-----------8-------------------6------7------6-----

-------10---------10--------------------9---9---------9---9---

----9----------9------ -----9--7--6-----------------------------

------------------------------------------------------------------

-------------------------------------------------------------------







01:13 - 01:30

-------------8---------8----------------8--------8------7---

--------------------------------------------------------------

--------9---------9-------9-------9--------9-------9-------

-----7---------7-------7-------7--------7--------------------

---------------------------------------------------------------

--------------------------------------------------------------





----------------10---------------------------------------------

------------10-----------13-----12----9----10----12----13----

---------10----------10-----10-----9-----9-----9-----9--------

------9---------------------------------------------------------

----------------------------------------------------------------

----------------------------------------------------------------





-------------8---------8----------------8--------8------7----

--------------------------------------------------------------

--------9---------9-------9-------9--------9-------9--------

-----7---------7-------7-------7--------7--------------------

---------------------------------------------------------------

----------------------------------------------------------------





----------------10----------------------------------------

------------10-----------13-----12----9-----------------

---------10----------10-----10-----9--------------------

------9----------------------------------------------------



-----------------------------------------------------------

-----------------------------------------------------------







solo 01:30 - 01:46



------------------------------------------------------------------

-------------------------------------------------------------------

-------------------------------------------------------------------

--10&12---10-----12&14---9----9h10---9---7---6-------------

-------------------------------------------------------------7--8-

--------------------------------------------------------------------



-------------------------------------------------------------

-------------------------------------------------------------

-------------------------------------------------------------



------10&12--10-----7------9-----------------------------

--------------------------------------------------------------

-------------------------------------------------------------







x4 defa, 01:46 - 02:26

---------------1------1---------------1------1-----0---

---------------------------------------------------------

--------2--------2--------3-------3-----3-------------

-----0--------0--------0-------0-----0-------0-------

---------------------------------------------------------

--------------------------------------------------------





-----------------3-------1------0---------------------0-----1----

-------------3-------------------------2-----3-------------------

---------3-----------3------3-------2-----2-----2--------2-------

----2------------------------------------------------------------

-----------------------------------------------------------------

------------------------------------------------------------------









-------------3-------1-------0---------6-------5------0------1------

----------3---------------------------------------------------------

-------3--------3-------3--------3--------3-------3------3---------

----2---------------------------------------------------------------

--------------------------------------------------------------------

---------------------------------------------------------------------

Linkback: https://www.buyuknet.com/mor-ve-otesi-kucuk-sevgilim-tab-t29402.0.html

Etiket:
 

Bu bilgi size yardimci oldu mu?

EvetHayır
Mor ve Ötesi - Küçük Sevgilim (Tab)
Mor ve Ötesi - Küçük Sevgilim (Tab)
(Ortalama: 5 üzerinden 2.5 - 2 Oy)
2
Mor ve Ötesi - Küçük Sevgilim (Tab)

Mor ve Ötesi - Küçük Sevgilim (Tab) »Intro x4 defa, 00:00 - 00:36 -------------------------------------------------------------------