Motorhead - Play In The Game(Tab)

Buyuknet15.10.2010 - 02:05 |
Riff 1

Eb|-------------------------------------------------------------|

Bb|-------------------------------------------------------------|

Gb|-------------------------------------------------------------|

Db|-------------------------------------------------------------|

Ab|--2-~------2-~------2-2-~------2-~---------------------------|

Eb|--0--------0--------0-0--------0---------12'1----------------|



Riff 2

Eb|-------------------------------------------------------------|

Bb|-------------------------------------------------------------|

Gb|-------------------------------------------------------------|

Db|-------------------------------------------------------------|

Ab|--222--222----222--222----222--222----222--222---------------|

Eb|--000--000----000--000----000--000----000--000------12'1-----|



(0:15)

Eb|-------------------------------------------------------------|

Bb|--(12-12-12)--(12-12-12)'------------------------------------|

Gb|--(12-12-12)--(12-12-12)'------------------------------------|

Db|--(12-12-12)--(12-12-12)'------------------------------------|

Ab|-------------------------------------------------------------|

Eb|-------------------------------------------------------------|



Riff 3

Eb|----------------------------------------------------------------|

Bb|----------------------------------------------------------------|

Gb|----------------------------------------------------------------|

Db|----------------------------------------------------------------|

Ab|--22-5-4--222-5-7--22-5-4--222-5-7--22-5-4--222-5-7--22-5-4-----|

Eb|--00-3-2--000-3-5--00-3-2--000-3-5--00-3-2--000-3-5--00-3-2-----|



Riff 4

Eb|-------------------------------------------------------------|



Bb|-------------------------------------------------------------|

Gb|-------------------------------------------------------------|

Db|-------------------------------------------------------------|

Ab|--2-5-7--2-7-5--2-5-7--2-7-5--2-5-7--2-7-5--2-5-7--2-7-5-----|

Eb|--0-3-5--0-5-3--0-3-5--0-5-3--0-3-5--0-5-3--0-3-5--0-5-3-----|



Riff 5

Eb|-------------------------------------------------------------|

Bb|-------------------------------------------------------------|

Gb|-------------------------------------------------------------|

Db|-------------------------------------------------------------|

Ab|--222--8---222--8b9r8--8-------------------------------------|

Eb|--000--6---000--6b7r6--6-------------------------------------|



Riff 5



Eb|---18~~--14~~---|

Bb|----------------|

Gb|----------------|

Db|----------------|

Ab|----------------|

Eb|----------------|

Linkback: https://www.buyuknet.com/motorhead-play-in-the-gametab-t29491.0.html

Etiket:
 

Bu bilgi size yardimci oldu mu?

EvetHayır
Motorhead - Play In The Game(Tab)
Motorhead - Play In The Game(Tab)
(Ortalama: 5 üzerinden 2.5 - 2 Oy)
2
Motorhead - Play In The Game(Tab)

Motorhead - Play In The Game(Tab) »Riff 1 Eb|-------------------------------------------------------------| Bb|-------------------------------------------------------------|