Ode To My Family

Buyuknet15.10.2010 - 02:06
*





          Ode To My Family









Solo: C Am Em F





 C                          Am                    Em

D--------------------------------------------------------------------------

B---1------1----1----1---------1-----1----1--------------0----0----0-------

G-----0------0----0----0---------2-----2----2--------------0----0----0-----

C-------2------2---------2---------2----------2--------------2---------2---

A---3--------------------------0-------------------------------------------

E---------------------------------------------------------0----------------



 F

D-----------------------------------------------------------------------

B--0--------------------------------------------------------------------

G----0------------------------------------------------------------------

D------0----0&2&0-0&2&0-------------------------------------------------

G-----------------------------------------------------------------------

D--2--------------------------------------------------------------------









Kaynak: Bydigi Forum

Linkback: https://www.buyuknet.com/ode-to-my-family-t29547.0.html

Etiket:
 

Bu bilgi size yardimci oldu mu?

EvetHayır
Ode To My Family
Ode To My Family
(Ortalama: 5 üzerinden 2.5 - 2 Oy)
2
Ode To My Family

Ode To My Family »           Ode To My Family Solo: C Am Em F  C                          Am                    Em