Otherside

Buyuknet15.10.2010 - 02:04
*





          intro

-----------------------------------------------------------------------------



-----------------------------------------------------------------------------

-----------------------------------------------------------------------------

--------------7--7--9--7-----------------------------------------------------

-----7--7--7--------------10--7--------5--5--5-------------------------------

-----------------------------------------------------------------------------



-----------------------------------------------------------------------------

-----------------------------------------------------------------------------

-----------------------------------------------------------------------------

--------------7--7--9--7-----------------------------------------------------

-----7--7--7--------------10--7--7--7--5--5--5-------------------------------

-----------------------------------------------------------------------------

How long, how long.......



-----------------------------------------------------------------------------

-----------------------------------------------------------------------------

-----------------------------------------------------------------------------

-------------7--7--9--7------------------------------------------------------

----7--7--7--------------10--7--7--7--5--5--5--------------------------------

-----------------------------------------------------------------------------



-----------------------------------------------------------------------------

-----------------------------------------------------------------------------

----------------------9--9--9------------------------------------------------

-------------7--7--7----------9---9--9---------------------------------------

----7--7--7------------------------------------------------------------------

-----------------------------------------------------------------------------



verse

(a) (b)

------------------------15----|-----3--------------5-------------------------

--13--------------12----------|-----3--------------5-------------------------

------------------------------|-----4--------------6-------------------------

------------------------------|-----5--------------7-------------------------

------------------------------|-----5--------------7-------------------------

------------------------------|-----3--------------5-------------------------

Verse form

(a) x3

(b) x1

(a) x3

(b) x3

heard your voice through a photograph........



chorus

-----------------------------------------------------------------------------

-----------------------------------------------------------------------------

-----------------------------------------------------------------------------

-------------7--7--9--7------------------------------------------------------

----7--7--7--------------10--7--7--7--5--5--5--------------------------------



-----------------------------------------------------------------------------



-----------------------------------------------------------------------------

-----------------------------------------------------------------------------

-----------------------------------------------------------------------------

-------------7--7--9--7------------------------------------------------------

----7--7--7--------------10--7--7--7--5--5--5--------------------------------

-----------------------------------------------------------------------------



-----------------------------------------------------------------------------

-----------------------------------------------------------------------------

---------------------9--9--9--9&12--12--12--12-------------------------------

-------------7--7--7---------------------------------------------------------

----7--7--7------------------------------------------------------------------

-----------------------------------------------------------------------------

how long how long............



verse

(a) (b)

------------------------15----|-----3--------------5-------------------------

--13--------------12----------|-----3--------------5-------------------------

------------------------------|-----4--------------6-------------------------

------------------------------|-----5--------------7-------------------------

------------------------------|-----5--------------7-------------------------

------------------------------|-----3--------------5-------------------------

Verse form

(a) x3

(b) x1

(a) x3

(b) x3



Pour my life into a paper cup.......



chorus

-----------------------------------------------------------------------------

-----------------------------------------------------------------------------

-----------------------------------------------------------------------------

-------------7--7--9--7------------------------------------------------------

----7--7--7--------------10--7--7--7--5--5--5--------------------------------

-----------------------------------------------------------------------------



-----------------------------------------------------------------------------

-----------------------------------------------------------------------------

-----------------------------------------------------------------------------

-------------7--7--9--7------------------------------------------------------

----7--7--7--------------10--7--7--7--5--5--5--------------------------------

-----------------------------------------------------------------------------



-----------------------------------------------------------------------------

-----------------------------------------------------------------------------

----------------------9--9--9------------------------------------------------

-------------7--7--7-----------9----9--9-------------------------------------

----7--7--7------------------------------------------------------------------

-----------------------------------------------------------------------------

Bridge



|-------------Harmonics--------------------|

-----12-----12-------12------------------------------------------------------

--------------------------------12---12-----12-------------------------------

-----------------------------------------------------------------------------

-----------------------------------------------------------------------------

-----------------------------------------------------------------------------

-----------------------------------------------------------------------------



Solo

------------------10&12--12-12-12---12h15--12-12-12h15-12-12h15-12--12h5-----

--10--10-10-10-10------------------------------------------------------------

-----------------------------------------------------------------------------

-----------------------------------------------------------------------------

-----------------------------------------------------------------------------

-----------------------------------------------------------------------------

Linkback: https://www.buyuknet.com/otherside-t29429.0.html

Etiket:
 

Bu bilgi size yardimci oldu mu?

EvetHayır
Otherside
Otherside
(Ortalama: 5 üzerinden 2.5 - 2 Oy)
2
Otherside

Otherside »           intro -----------------------------------------------------------------------------