Over Kill - Over Kill(Tab)

Buyuknet15.10.2010 - 02:04
*





          Overkill

Starts out with wind effects as the guitar fades in



riff1 play8 times riff2

---------------------------------------------------|--------------------

---------------------------------------------------|--------------------

------6--------7--------6--------7--------6--------|--------4-----------

4--4-----4--4-----4--4-----4--4-----4--4-----4--4--|--2--2-----2--2-----

---------------------------------------------------|--------------------

---------------------------------------------------|--------------------





play twice

------------------------------------|-----------------------------------

------------------------------------|-----------------------------------

5--------4--------5--------4--------|-----------------------------------

---2--2-----2--2-----2--2-----2--2--|-----------------------------------

------------------------------------|-----------------------------------

------------------------------------|-----------------------------------





play riff1 twice

------------------------------------------------------------------------

------------------------------------------------------------------------

------------------------------------------------------------------------

------------------------------------------------------------------------

------------------------------------------------------------------------

------------------------------------------------------------------------





play riff2 twice

---------------------|--------------------------------------------------

---------------------|--------------------------------------------------

---------------------|--------------------------------------------------

---------------------|--------------------------------------------------

---------------------|--------------------------------------------------

---------------------|--------------------------------------------------





riff a

---------------------------------------------|--------------------------

---------------------------------------------|--------------------------

---------------------------------------------|--------------------------

---------------------------------------------|--------------------------

---------------------------------------------|--2--4--4--4--4--4--4-----

---------------------------------------------|--0--2--2--2--2--2--2-----





riff3

---------------------------------------------------------|--------------

---------------------------------------------------------|--------------

---------------------------------------------------------|--------------

---------------------------------------------------------|--------4-----

4--4--4--4--4--4--2--4--4--4--4--4--4--4--4--4--4--4--4--|--------2-----

2--2--2--2--2--2--0--2--2--2--2--2--2--2--2--2--2--2--2--|--------------







------------------------------------------------------------------------

------------------------------------------------------------------------

------------------------------------------------------------------------

------6--------6--------6--------6--4--------6--------6--------6--------

4--4--4--4--4--4--4--4--4--4--4--4--2--4--4--4--4--4--4--4--4--4--4-----

------------------------------------------------------------------------







------------------------------------------------------------------------

------------------------------------------------------------------------

------------------------------------------------------------------------

---6--2--------4--------4--------4--------4--2--------------------------

4--4--0--2--2--2--2--2--2--2--2--2--2--2--2--0--------------------2-----

------------------------------------------------------------------------







------------------------------------------------------------------------

------------------------------------------------------------------------

------------------------------------------------------------------------

---4--------4--------4--------4--2-----4--------6--------6--------6-----

2--2--2--2--2--2--2--2--2--2--2--0-----2--4--4--4--4--4--4--4--4--4-----

------------------------------------------------------------------------







------------------------------------------------------------------------

------------------------------------------------------------------------

------------------------------------------------------------------------

------6--4--------6--------6--------6--------6--2--------4--------4-----

4--4--4--2--4--4--4--4--4--4--4--4--4--4--4--4--0--2--2--2--2--2--2-----

------------------------------------------------------------------------







------------------------------------------------------------|-----------

------------------------------------------------------------|-----------

------------------------------------------------------------|-----------

------4--------4--2--------4--------4--------4--------4--2--|-----------

2--2--2--2--2--2--0--2--2--2--2--2--2--2--2--2--2--2--2--0--|-----------

------------------------------------------------------------|-----------





play riff1 twice

------------------------------------------------------------------------

------------------------------------------------------------------------

------------------------------------------------------------------------

------------------------------------------------------------------------

------------------------------------------------------------------------

------------------------------------------------------------------------





play riff3

------------------|-----------------------------------------------------

------------------|-----------------------------------------------------

------------------|-----------------------------------------------------

------------------|-----------------------------------------------------

------------------|-----------------------------------------------------

------------------|-----------------------------------------------------





then riff 1 twice

---------|--------------------------------------------------------------

---------|--------------------------------------------------------------



---------|--------------------------------------------------------------

---------|--------------------------------------------------------------

---------|--------------------------------------------------------------

---------|--------------------------------------------------------------







------------------------------|-----------------------------------------

------------------------------|-----------------------------------------

------------------------------|-----------------------------------------

------------------------------|-----------------------------------------

------------------------------|-----------------------------------------

------------------------------|-----------------------------------------





chorus riff

------------------------------------------------------------------------

------------------------------------------------------------------------

---------------------6--4--------------------------------6--4-----7-----

---------------------4--2--6--4--2--4--------------------4--2--6--5-----

---2--4--4--2--4--4--------4--2--0--2--2--4--4--2--4--4--------4--------

---0--2--2--0--2--2--------------------0--2--2--0--2--2-----------------







------------------------------------------------------------------------

------------------------------------------------------------------------

6--4--------------------6--4--------------------------------6--4--------

4--2--------------------4--2--6--4--2--4--------------------4--2--6-----

------2--4--4--2--4--4--------4--2--0--2--2--4--4--2--4--4--------4-----

------0--2--2--0--2--2--------------------0--2--2--0--2--2--------------







---------------------------------|--------------------------------------

---------------------------------|--------------------------------------

7--6--4--------6--4-----7--6--4--|--------------------------------------

5--4--2--------4--2--6--5--4--2--|--------2-----4-----5-----4-----2-----

---------------------4-----------|--4-----0-----2-----3-----2-----0-----

---------------------------------|--2-----------------------------------







------------------------------------------------------------------------

------------------------------------------------------------------------

------------------------------------------------------------------------

------2-----4-----5-----4-----2-----------------------------------------

4-----0-----2-----3-----2-----0-----------------------------------------

2-----------------------------------------------------------------------







------------------------------------------------------------------------

------------------------------------------------------------------------

------------------------------------------------------------------------

------4--------6-----7-----6-----4--------4--------6--------7-----6-----

6-----2--------4-----5-----4-----2--6-----2--------4--------5-----4-----

4-----------------------------------4-----------------------------------







------------------------------------------------------------------------

------------------------------------------------------------------------

------------------------------------------------------------------------

---4-----------6-----8-----9--8--6--------------------------------------

---2-----8-----4-----6-----7--6--4--------------------------------------

---------6--------------------------------------------------------------







------------------------------------------------------------------------

------------------------------------------------------------------------

------------------------------------------------------------------------

------------6-----8-----9--8-----6--9--8--6--------------6--4--2--------

------8-----4-----6-----7--6-----4--7--6--4-----9--7--6--4--2--0--6-----

------6-----------------------------------------7--5--4-----------4-----





bell sound

---------|--------------------------------------------------------------

---------|--------------------------------------------------------------

---------|--------------------------------------------------------------

---------|--------------------------------------------------------------

7--9--6--|--------------------------------------------------------------

5--7--4--|--------------------------------------------------------------





play riff1 4 times

------------------------------------------------------------------------

------------------------------------------------------------------------

------------------------------------------------------------------------

------------------------------------------------------------------------

------------------------------------------------------------------------

------------------------------------------------------------------------

Linkback: https://www.buyuknet.com/over-kill-over-killtab-t29469.0.html

Etiket:
 

Bu bilgi size yardimci oldu mu?

EvetHayır
Over Kill - Over Kill(Tab)
Over Kill - Over Kill(Tab)
(Ortalama: 5 üzerinden 2.5 - 2 Oy)
2
Over Kill - Over Kill(Tab)

Over Kill - Over Kill(Tab) »           Overkill Starts out with wind effects as the guitar fades in riff1 play8 times riff2