Overkill - Damned

Buyuknet15.10.2010 - 01:58
*





          INTRO

Gtr.1

|-3---3---3---3-|

|-3---3---3---3-|

|-1---1---1---1-|

|---------------|

|---------------|

|--00--00--00---|Repeat Around 17 Times While Lead Plays Gtr.2

   **  **  **

Gtr.2

|-----------------------------------------------------------------------|

|-----------------------------------------------------------------------|

|-----------------------------------------------------------------------|

|---------------------------------------------------------------------1-|

|---------------------------------------------------------------------1-|

|-0-3-2-3-2-0-3-2-3-2-0-3-2-3-2-1111111-0-3-2-3-2-0-3-2-3-2-0-3-2-3-2-1-|

 

Main Riff Intro/Chorus

|----------------------------------------------------|

|----------------------------------------------------|

|----------------------------------------------------|

|-2-----5/4/5/3--------------2/3--2-----5-4--1111111-|

|-2-----5/4/5/3--------------2/3--2-----5-4--1111111-|

|-0-00--3/2/3/1--000000------2/3--0-00--3-2--1111111-|

    **        E  ******             **

(Bass Solo)

 

Then guitar Comes in With This I Think??

Riff 3

|--------------------------|

|--------------------------|

|--------------------------|

|--------------------------|

|-4/5/4/5/4/5-2--2-5/4/5/4-|

|-2/3/2/3/2/3-4--4-3/2/3/2-|x2

 

Verse Riff

|----------------------|

|----------------------|

|----3------3----3-----|

|----3------3----3-5/3-|

|----1------1----1-5/3-|

|--00---00---00----3/1-|

   **   **   **

(Then Riff 3 Again)

(Verse Riff)

(Chorus Riff)

And So On...

 

Riff 5

After Second Chorus (Pre-Solo Riff)

|-33-33-33-33-|

|-33-33-33-33-|

|-11-11-11-11-|

|-11-11-11-11-|

|-------------|

|-------------|Repeat This A Good Few Times

 

Rythm

Solo

(I Think?)

|----------------------------|

|----------------------------|

|----------------------------|

|-1---11--------------1---11-|

|-1---11--------------1---11-|

|-1-0-11-00000000-----1-0-11-|x8

    *    ********       *

Linkback: https://www.buyuknet.com/overkill-damned-t29139.0.html

Etiket:
 

Bu bilgi size yardimci oldu mu?

EvetHayır
Overkill - Damned
Overkill - Damned
(Ortalama: 5 üzerinden 2.5 - 2 Oy)
2
Overkill - Damned

Overkill - Damned »           INTRO Gtr.1 |-3---3---3---3-| |-3---3---3---3-| |-1---1---1---1-| |---------------| |---------------|