Overkill - Elimination

Buyuknet15.10.2010 - 01:58
*





          Tune Gtr to E

 

Elimination

 

Riff 1

|--------------------------------------------------------------------|

|--------------------------------------------------------------------|

|--------------------------------------------------------------------|

|----------4--------3--------4--------5-----4-------------4--------3-|

|-2--------2--------1--------2--------3-----2p0--2--------2--------1-|

|-0--0--0-----0--0-----0--0-----0--0-----0-------0--0--0-----0--0----|

                  End Riff 1

|---------------------------|

|---------------------------|

|---------------------------|

|-------4-------------------|

|-------2--------4--5--4--5-|

|-0--0-----0--0--2--3--2--3-|

 

|--------------------------------------------------|

|--------------------------------------------------|

|-------------------------------------0------------|

|-------------------------------------0------------|

|-2--------2--------2--------2---------------------|

|-0--------0--------0--------0--------3--------12\-|

 Chorus

|------------------------------------------------|

|------------------------------------------------|

|-9--------7--------9--------12--------14--------|

|-9--------7--------9--------12--------14--------|

|-7--------5--------7--------10--------12--------|

|-0-----------------0----------------------------|

 Bridge

|-------------------------------------|

|-------------------------------------|

|----------5--------7--------9--------|

|-2--------5--------7--------9--------|

|-2--------3--------5--------7--------|

|-0-----------------------------------|

 Riff 2            End Riff 2        

|----------------------------|-----------|-------------------|

|----------------------------|-----------|-------------------|

|----------7--------9--------|-11--------|-------------------|

|----------7--------9--------|-11--------|-7aaaa bend--------|

|-4--------5--------7--------|-9---------|-------------------|

|-2--------------------------|-----------|-------------------|

               4 Times

|---------------------|

|---------------------|

|---------------------|

|---------------------|

|-4----4----4----4----|

|-2----2----2----2----|

 Interlude

|-------------------------------------------------------------------------|

|-------------------------------------------------------------------------|

|----------5--------7--------9-----------------5--------7--------9--------|

|-2--------5--------7--------9--------2--------5--------7--------9--------|

|-2--------3--------5--------7--------2--------3--------5--------7--------|

|-0-----------------------------------0-----------------------------------|

 Rhythm over solo

|----------------------------------------------------------|

|----------------------------------------------------------|

|--------------------6/7----------------7/9----------------|

|--------------------6/7----------------7/9----------------|

|---4----------------4/5-55555555555555-5/7-77777777777777-|

|-0h2-22222222222222---------------------------------------|

 Continued

|---------------------|

|---------------------|

|-9/11----------------|

|-9/11----------------|

|-7/9--99999999999999-|

|---------------------|

 Riff 3                                               End Riff 3

|---------------------------------------------------------------|-----------|

|---------------------------------------------------------------|-----------|

|-11---------------9----------------11----------------14--------|-16--------|

|-11---------------9----------------11----------------14--------|-16--------|

|-9-99999999999999-7-77777777777777-9--99999999999999-12--------|-14--------|

|---------------------------------------------------------------|-----------|

 End

|---|

|---|

|-9-|

|-9-|

|-7-|

|-0-|

Linkback: https://www.buyuknet.com/overkill-elimination-t29138.0.html

Etiket:
 

Bu bilgi size yardimci oldu mu?

EvetHayır
Overkill - Elimination
Overkill - Elimination
(Ortalama: 5 üzerinden 2.5 - 2 Oy)
2
Overkill - Elimination

Overkill - Elimination »           Tune Gtr to E   Elimination   Riff 1 |--------------------------------------------------------------------|