Paco De Lucia - Malaguena Salerosa

Buyuknet15.10.2010 - 02:04
*





          Intro Riff:



E||-------------------|-------------------|-------------------|-----------------

|

B||--0--4--0--4--7----|--0--4--0--4--7----|--0--4--0--4--7----|--5--4--5--------

|

G||-------------------|-------------------|-------------------|-----------------

|

D||-------------------|-------------------|-------------------|-----------------

|

A||-------------------|-------------------|-------------------|-----------------

|

E||-------------------|-------------------|-------------------|-----------------

|



-------------------|-------------------|--5----------------|-----------------|--

------------5-----|

--0--5--0--5--8----|--0--5--0--5--8----|-----8--7--5--5----|-----------------|--

4--7--4--7-----7--|

-------------------|-------------------|-------------------|--8--7--8--------|--

------------------|

-------------------|-------------------|-------------------|-----------------|--

------------------|

-------------------|-------------------|-------------------|-----------------|--

------------------|

-------------------|-------------------|-------------------|-----------------|--

------------------|



--------------5----|--7--5--------5----|-----------------|-------5----7--5--|---

-----5-----------|

--4--7--4--7-------|--------8--7-------|--8--7--8--------|--8---------------|--8

--7-----8--7--5--|

-------------------|-------------------|-----------------|------------------|---

-----------------|

-------------------|-------------------|-----------------|------------------|---

-----------------|

-------------------|-------------------|-----------------|------------------|---

-----------------|

-------------------|-------------------|-----------------|------------------|---

-----------------|



--------------------|-----------------|--------------|--7--7--7--8--8--8--7--7--

7--|

--8--7--5-----5--7--|--5--4-----------|--------------|--------------------------

---|

-----------8--------|--------4--------|--------------|--------------------------

---|

--------------------|-----------------|--------------|--------------------------

---|

--------------------|-----------------|--------------|--------------------------

---|

--------------------|-----------------|--------------|--------------------------

---|



--5--5--5--3--3--3--2--2--2--|--0------------|---------------|---------------|--

----------6--|

-----------------------------|---------------|------------7--|--8------------|--

-------------|

-----------------------------|---------------|---------------|---------------|--

-------------|

-----------------------------|---------------|---------------|---------------|--

-------------|

-----------------------------|---------------|---------------|---------------|--

-------------|

-----------------------------|---------------|---------------|---------------|--

-------------|



--7------------|------------11--|--12-----|

---------------|----------------|---------|

---------------|----------------|---------|

---------------|----------------|---------|

---------------|----------------|---------|

---------------|----------------|---------|



Em

Que bonitos ojos tienes

Am

Debajo de esas dos cejas

D

Debajo de esas dos cejas

B7

Que bonitos ojos tienes.



Em

Ellos me quieren mirar

Am

Pero si tu no los dejas

D

Pero si tu no los dejas

B7

Ni siquiera parpadear.





Verse Riffs:





#1



|----7--7--7--7--8-5-|

|--------------------|

|--------------------|

|--------------------|

|--------------------|

|--------------------|



#2



|--------7--7--8--|--11--8-11-7--8--7--6--|--7--6-----------6--|

|-----------------|-----------------------|--------8--7--8-----|

|-----------------|-----------------------|--------------------|

|-----------------|-----------------------|--------------------|

|-----------------|-----------------------|--------------------|

|-----------------|-----------------------|--------------------|



------------------|

--7---------------|

------------------|

------------------|

---------2--0-----|

---------------3--|



#3

Malagu

ena

7-7-7-7--7--8--11--8-11-7--8--|--7--6--7--8--7--6--|--7------------|------|-----

-|

------------------------------|--------------------|---------------|------|-----



-|

------------------------------|--------------------|---------------|------|-----

-|

------------------------------|--------------------|---------------|------|-----

-|

------------------------------|--------------------|---------------|------|-----

-|

------------------------------|--------------------|---------------|------|-----

-|

Salerosa

--15--14--14--14--14--12--|--11------------|------|

--------------------------|----------------|------|

--------------------------|----------------|------|

--------------------------|----------------|------|

--------------------------|----------------|------|

--------------------------|----------------|------|



Chords to Prechorus:



B7 Em

Malaguena salerosa

D

Besar tus labios quisiera

G

Besar tus labios quisiera.

B7

Malaguena salerosa

Em

Y decirte nina hermosa.





Riffs of Prechorus:





|--------12--12--14--|--15--14--12--------|--------12--15--14--|

|--------------------|--------------------|--------------------|

|--------------------|--------------------|--------------------|

|--------------------|--------------------|--------------------|

|--------------------|--------------------|--------------------|

|--------------------|--------------------|--------------------|



--12------12--------|--------15-15-15-15--15--|--14--12--12--12--12--12--|--12&-

7----7--7--8--|

------15------------|-------------------------|--------------------------|------

--------------|

--------------------|-------------------------|--------------------------|------

--------------|

--------------------|-------------------------|--------------------------|------

--------------|

--------------------|-------------------------|--------------------------|------

--------------|

--------------------|-------------------------|--------------------------|------

--------------|

Que eres lin

--7------------|--------------------|--------------------------|---------------|

------|

---------------|--------------------|--------------------------|---------------|

------|

---------------|--------------------|--------------------------|---------------|

------|

---------------|--------------------|--0-2-4-4-2-0-------------|---------------|

------|

---------------|--------------0-2-3-|--------------3-2-0-------|---------------|

------|

---------------|--------0-2-3-------|--------------------3-2-2-|--0------------|

------|



--------------------|--------------------------|---------------|------|---------

-----------------|

--------------------|--------------------------|---------------|------|--8-8-8-8

-8-8-8-8-8-8-8-8-|

--------------------|--------------------------|---------------|------|---------

-----------------|

--------------------|--0-2-4-4-2-0-------------|---------------|------|---------

-----------------|

--------------0-2-3-|--------------3-2-0-------|---------------|------|---------

-----------------|

--------0-2-3-------|--------------------3-2-2-|--0------------|------|---------

-----------------|



--------------------------------------|--12-12-12-12-12-12-12-12-12-12-12-12-|

--12-12-12-12-12-12-12-12-12-12-12-12-|--------------------------------------|

--------------------------------------|--------------------------------------|

--------------------------------------|--------------------------------------|

--------------------------------------|--------------------------------------|

--------------------------------------|--------------------------------------|



da y hechicera

--15-15-15-15-15-15-15-15-15-15-15-15-|

--------------------------------------|

--------------------------------------|

--------------------------------------|

--------------------------------------|

--------------------------------------|





Chords to Chorus:





Em D

Que eres lin........da y hechicera,

G

Que eres linda y hechicera

B7

Como el candor de una rosa.

Linkback: https://www.buyuknet.com/paco-de-lucia-malaguena-salerosa-t29455.0.html

Etiket:
 

Bu bilgi size yardimci oldu mu?

EvetHayır
Paco De Lucia - Malaguena Salerosa
Paco De Lucia - Malaguena Salerosa
(Ortalama: 5 üzerinden 2.5 - 2 Oy)
2
Paco De Lucia - Malaguena Salerosa

Paco De Lucia - Malaguena Salerosa »           Intro Riff: E||-------------------|-------------------|-------------------|----------------- |