Papa Roach - Between Angels And Insect (Tab)

Buyuknet15.10.2010 - 02:04 |
(D-A-D-G-B-E) Yukaridan asagi bu sekilde.En üst Mi (E) telini Re (D)'ye aliyoruz.



RIFF A:



E |-----------------------------------------------|

B |-----------------------------------------------|

G |-----------------------------------------------|



D |-----------------------------------------------|

A |---8---7---10---8---7&8---8---7---10---8---7&8-|

D |-0---0---0----0---0-----8---8---8----8---8-----|



|----------------------------------------------------|

|----------------------------------------------------|

|----------------------------------------------------|

|----------------------------------------------------|

|---8---7---10---8---7&8----8----7----10----8----87-|

|-7---7---7----7---7-----10---10---10----10---10-----|



RIFF B:



|-----------------------------------------------------------------|

|-----------------------------------------------------------------|

|-----------------5-5-5-5-5-5-5-5-----------------5-5-5-5-5-5-5-5-|

|-0-0-0-0-0-0-0-0-5-5-5-5-5-5-5-5-0-0-0-0-0-0-0-0-5-5-5-5-5-5-5-5-|

|-0-0-0-0-0-0-0-0-3-3-3-3-3-3-3-3-0-0-0-0-0-0-0-0-3-3-3-3-3-3-3-3-|

|-0-0-0-0-0-0-0-0-----------------0-0-0-0-0-0-0-0-----------------|



|-----------------------------------------------------------------|

|-----------------------------------------------------------------|

|-----------------5-5-5-5-5-5-5-5-----------------5-5-5-5-5-5-5-5-|

|-7-7-7-7-7-7-7-7-5-5-5-5-5-5-5-5-7-7-7-7-7-7-7-7-5-5-5-5-5-5-5-5-|

|-7-7-7-7-7-7-7-7-3-3-3-3-3-3-3-3-7-7-7-7-7-7-7-7-3-3-3-3-3-3-3-3-|

|-7-7-7-7-7-7-7-7-----------------7-7-7-7-7-7-7-7-----------------|











RIFF C:



|-----------------------------------------------------------------|

|-----------------------------------------------------------------|

|-----------------5-5-5-5-5-5-5-5-----------------5-5-5-5-5-5-5-5-|

|-0-0-0-0-0-0-0-0-5-5-5-5-5-5-5-5-0-0-0-0-0-0-0-0-5-5-5-5-5-5-5-5-|

|-0-0-0-0-0-0-0-0-3-3-3-3-3-3-3-3-0-0-0-0-0-0-0-0-3-3-3-3-3-3-3-3-|

|-0-0-0-0-0-0-0-0-----------------0-0-0-0-0-0-0-0-----------------|



|-----------------------------------------------------------------|

|-----------------------------------------------------------------|

|-----------------------------------------------------------------|

|-7-7-7-7-7-7-7-7-8-8-8-8-8-8-8-8-3-3-3-3-3-3-3-3-1-1-1-1-1-1-1-1-|

|-7-7-7-7-7-7-7-7-8-8-8-8-8-8-8-8-3-3-3-3-3-3-3-3-1-1-1-1-1-1-1-1-|

|-7-7-7-7-7-7-7-7-8-8-8-8-8-8-8-8-3-3-3-3-3-3-3-3-1-1-1-1-1-1-1-1-|



RIFF D:



|-----------------------------------------------------------------|

|-----------------------------------------------------------------|

|-----------------------------------------------------------------|

|-(0-0-0-0-0)---------------------(8-8-8-8-8)---------------------|

|-(0-0-0-0-0)-7&8-8&10-10-10-108-(8-8-8-8-8)-7&8-8&10-10-10-108-|

|-(0-0-0-0-0)---------------------(8-8-8-8-8)---------------------|



|-----------------------------------------------------------------------|

|-----------------------------------------------------------------------|

|-----------------------------------------------------------------------|

|-(7-7-7-7-7)---------------------(10-10-10-10-10)----------------------|

|-(7-7-7-7-7)-7&8-8&10-10-10-108-(10-10-10-10-10)----------------------|

|-(7-7-7-7-7)---------------------(10-10-10-10-10)-0-8&10-0-8&10-0-8&10-|



RIFF E:



|-----------------------------------------------------------------|

|-----------------------------------------------------------------|

|-----------------5-5-5-5-5-5-5-5-----------------5-5-5-5-5-5-5-5-|

|-0-0-0-0-0-0-0-0-5-5-5-5-5-5-5-5-0-0-0-0-0-0-0-0-5-5-5-5-5-5-5-5-|

|-0-0-0-0-0-0-0-0-3-3-3-3-3-3-3-3-0-0-0-0-0-0-0-0-3-3-3-3-3-3-3-3-|

|-0-0-0-0-0-0-0-0-----------------0-0-0-0-0-0-0-0-----------------|



|--------------------------------------------------------------------|

|--------------------------------------------------------------------|

|-----------------5-5-5-5-5-5-5-5-----------------5-5-5-5-5-5-5-5-7-|

|-7-7-7-7-7-7-7-7-5-5-5-5-5-5-5-5-7-7-7-7-7-7-7-7-5-5-5-5-5-5-5-5-7-|

|-7-7-7-7-7-7-7-7-3-3-3-3-3-3-3-3-7-7-7-7-7-7-7-7-3-3-3-3-3-3-3-3-5-|

|-7-7-7-7-7-7-7-7-----------------7-7-7-7-7-7-7-7--------------------|







RIFF F:



|-------------------------|

|-------------------------|

|-10-----10-----10-----10-|

|--0------8------7-----10-|

|--0------8------7-----10-|

|--0------8------7-----10-|



RIFF G:



|-----------------------------------------------|

|-----------------------------------------------|

|-----------------------------------------------|

|-----------------------------------------------|

|---8---7---10---8---7&8---8---7---10---8---7&8-|

|-0---0---0----0---0-----8---8---8----8---8-----|



|------------------------------------------------------|

|------------------------------------------------------|

|------------------------------------------------------|

|----------------------------------------------------0-|

|---8---7---10---8---7&8----8----7----10----8----87-0-|

|-7---7---7----7---7-----10---10---10----10---10-----0-|



RIFF H:



|-----------------------------------------------------------------------------|

|-----------------------------------------------------------------------------|

|-7-7-7-7-7-7-7-7-7-7-10-10-10-10-10-10-7-7-7-7-7-7-7-7-7-7-10-10-10-10-10-10-|

|-7-7-7-7-7-7-7-7-7-7-10-10-10-10-10-10-7-7-7-7-7-7-7-7-7-7-10-10-10-10-10-10-|

|-5-5-5-5-5-5-5-5-5-5--8--8--8--8--8--8-5-5-5-5-5-5-5-5-5-5--8--8--8--8--8--8-|

|-----------------------------------------------------------------------------|



|-------------------------------------------------------------------------------|

|-------------------------------------------------------------------------------|

|-9-9-9-9-9-9-9-9-9-9-10-10-10-10-10-10-9-9-9-9-9-9-9-9-9-9-10-10-10-10-10-10-7-|

|-9-9-9-9-9-9-9-9-9-9-10-10-10-10-10-10-9-9-9-9-9-9-9-9-9-9-10-10-10-10-10-10-0-|



|-7-7-7-7-7-7-7-7-7-7--8--8--8--8--8--8-7-7-7-7-7-7-7-7-7-7--8--8--8--8--8--8-0-|

|-----------------------------------------------------------------------------0-

Linkback: https://www.buyuknet.com/papa-roach-between-angels-and-insect-tab-t29454.0.html

Etiket:
 

Bu bilgi size yardimci oldu mu?

EvetHayır
Papa Roach - Between Angels And Insect (Tab)
Papa Roach - Between Angels And Insect (Tab)
(Ortalama: 5 üzerinden 2.5 - 2 Oy)
2
Papa Roach - Between Angels And Insect (Tab)

Papa Roach - Between Angels And Insect (Tab) »(D-A-D-G-B-E) Yukaridan asagi bu sekilde.En üst Mi (E) telini Re (D)'ye aliyoruz. RIFF A: E |-----------------------------------------------|