Pete Yorn - Just Another (Tab)

Buyuknet15.10.2010 - 01:58
*





          CHORDS USED:

 C   Am Dsus2  F   Em  G

-3- -3-  -1-  -3- -3- -3-

-1- -1-  -3-  -1- -1- -0-

-0- -2-  -2-  -2- -0- -0-

-2- -2-  -0-  -3- -2- -0-

-3- -0-  -x-  -0- -2- -2-

-x- -x-  -x-  -x- -0- -3-

 

INTRO: Played Like A Walking C

 

  C             Am          C             Am            C

|-----------------3---3--------------------3-----3-----(3)-

|---1-----1-------1---1-------1-----1--------0h1---0h1-----

|---0-----0---0h2-2---2-------0-----0---0h2----------------

|---2-----2---0h2---0---------2-----2---0h2-------------2--

|-3---3-3---2-0-----0---0-2-3---3-3---2-0---------------3--

|----------------------------------------------------------

 

          Am         C           Am            C(And So On)

3-----------3---3-0----3-----------3------3-0-|---

1---1-------1-1--------1---1-------1--0h1-----|--1

0---0---0h2---2--------0---0---0h2-2----------|--0

2---2---0h2---2--------2---2---0h2------------|--2

--3---2-0------------3---3---2----------------|3--

----------------------------------------------|---

                                                 YouAndI..

 

 

VERSE 1:

 

C           Am          C           Am        Dm        F

|--------------3---3-------------------3---3h0-----1-1-0---

|--1---1-------1-1-1-------1---1-------1-1-1---3-3-3-3-----

|--0---0---0h2-2-2-2-------0---0---0h2-2-2-2---2-2-2-2---2-

|--2---2---0h2---2---------2---2---0h2---2-----0-0---0---3-

|3---3---2-0---------0-2-3---3---2-0---------------------0-

|----------------------------------------------------------

 

           C (Back To C and Am For Fill)

---3-3-0-|---------------3---3-0-|

---1-----|---1---1-------1-1-----|

-2-2-----|---0---0----h2---2-----|

-3-3-----|---2---2---0h2---2-----|

-0-------|-3---3---2-0-----------|

---------|-----------------------|

 

VERSE 2: (Repete First Verse Chords Untill The Fill In And Replace It With This One Into The Chorus)

 

FILL 2: (Into Chorus)

 

C

|----------------------

|--1---1-1---1-1-0-0-1-

|--0---0-0---0-0-0-0-0-

|--2---2-2---2-2-2-2-2-

|3---3---3---3-3-3-3-3-

|----------------------

                   You Were...

 

CHORUS:

 

 F         Em        F         Em        Am       Em

|3---3-----------3-0-----3-----------3-0-----3---------3---

|1-1-1-------0-1-----1---1-1-1-1-0-1-----1-1-1-1-------0---

|2-2-2-2p0-0---------2-2-2-2-0-0---------2-2-2-2-0-0-0-0---

|3-3---3p0-2---------3-3---3-0-2---------2-2---2-0-2-2-2---

|0-0---0---2---------0-0---0-0-2---------0---------2-2-----

|----------0-------------------0-------------------0-------

 laying Wide...

 

G            

3-3-3-1-1-0--

1-1-1---0-0--

0-0-0---0-0--

0-0----------

2-2----------

3------------

 

 

FILL 3: (Between Chorus And Third Verse)

 

C              Am             C

-----------------3-----3-----(3)

---1-----1---------0h1---0h1----

---0-----0---0h2----------------

---2-----2---0h2--------------2-

-3---3-3---2-0----------------3-

--------------------------------

Linkback: https://www.buyuknet.com/pete-yorn-just-another-tab-t29144.0.html

Etiket:
 

Bu bilgi size yardimci oldu mu?

EvetHayır
Pete Yorn - Just Another (Tab)
Pete Yorn - Just Another (Tab)
(Ortalama: 5 üzerinden 2.5 - 2 Oy)
2
Pete Yorn - Just Another (Tab)

Pete Yorn - Just Another (Tab) »           CHORDS USED:  C   Am Dsus2  F   Em  G -3- -3-  -1-  -3- -3- -3- -1- -1-  -3-  -1- -1- -0- -0- -2-  -2-  -2-