Pixies - Where Is My Mind (akor tab)

Buyuknet15.10.2010 - 02:04
*





          [INTRO]



E C#m G# A (4x)



lead

E|-----4-----4-|----4-----4-|-----4-----4-|-0--0----0--

B|--5-----5----|-5-----5----|--4-----4----|-5--5p4--5--

G|-------------|------------|-------------|------------

D|-------------|------------|-------------|------------

A|-------------|------------|-------------|------------



E|-------------|------------|-------------|------------





[VERSE 1]

E C#m G# A

With your feet in the air and your head on the ground

E C#m G# A

Try this trick and spin it, yeah

E C#m

Your head will collapse

G#

But there's nothing in it

A

And you'll ask yourself





[CHORUS]

E C#m

Where is my mind?

G# A

Where is my mind?

E C#m G# A

Where is my mind?



E C#m G# A



E G# A Am C#m B

Way out in the water, see it swimming.



[VERSE 2] - (E C#m G# A)

I was swimmin' in the Carribean

Animals were hiding behind the rock

Except the little fish

But they told me, he swears

Tryin' to talk to me, to me, to me



-CHORUS-





E|-------------------------------|-------------------------10--12--14^-

B|--7---7---7--7-----------------|--------7--7'10--10--12--------------

G|--9^--9^--------9--7--7--7-----|--7--9-------------------bend last---

D|----------------------------9--|------------------------ note a few--

A|-------------------------------|-------------------------times-------

E|-------------------------------|-------------------------------------

^ = bend

r = release bend

' = slide



-VERSE 1-



-CHORUS-



(just repeat E C#m G# A until the end)

Linkback: https://www.buyuknet.com/pixies-where-is-my-mind-akor-tab-t29445.0.html

Etiket:
 

Bu bilgi size yardimci oldu mu?

EvetHayır
Pixies - Where Is My Mind (akor tab)
Pixies - Where Is My Mind (akor tab)
(Ortalama: 5 üzerinden 2.5 - 2 Oy)
2
Pixies - Where Is My Mind (akor tab)

Pixies - Where Is My Mind (akor tab) »           [INTRO] E C#m G# A (4x) lead E|-----4-----4-|----4-----4-|-----4-----4-|-0--0----0--