Rammstein - Benzin akor

Buyuknet15.10.2010 - 02:04 |
Benzin

INTRO

1.gitar

E- ----------- ----------- -----------

B- ----------- ----------- -----------

G- ----------- ----------- -----------

D- 5-4-5-4-5h8 5-4-5-4-5h8 5-4-5-4----

A- ----------- ----------- ---------3-

E- ----------- ----------- -----------



2.gitar

E- ----------- ----------- -----------

B- ----------- ----------- -----------

G- ----------- ----------- -----------

D- ----------- ----------- -----------

A- 3-3-3-3-3-3 3-3-3-3-3-3 4-4-4-6-6-6

E- ----------- ----------- -----------



1.gitar ilikinde 2 kere yukardaki tabı çalıcak,

daha sonra 2.gitar gircek birlikte 2 kere daha çalıncak

toplam 4 kez, ve bateride girecek 2gitar birlikte alttaki tab çalınacak..



1.gitar

E- ----------- -----------

B- ----------- -----------

G- ----------- ----------- &

D- 5-4-5-4-5h8 5-4-5-4-5h8 &

A- ----------- ----------- &

E- ----------- ----------- &

&2x

2.gitar &

E- ----------- ----------- &

B- ----------- ----------- &

G- ----------- ----------- &

D- 5-5-5-5-5-5 5-5-5-5-5-5

A- 3-3-3-3-3-3 3-3-3-3-3-3

E- ----------- -----------



-------------------------------------

şarkıya giriliyo 1.gitar+perküsyon



1.gitar

E- ----------- -----------

B- ----------- -----------

G- ----------- ----------- >>nakarata kadar

D- 5-4-5-4-5h8 5-4-5-4-5h8

A- ----------- -----------

E- ----------- -----------



Ich brauche Zeit, kein Heroin

kein Alkohol, kein Nikotin

Brauch keine Hilfe, kein Koffein

doch Dynamit und Terpentin

Ich brauche Öl für Gasolin

explosiv wie Kerosin

mit viel Oktan und frei von Blei

einen Kraftstoff,,,,,,,!!!


E- -------------- -----------------

B- -------------- -----------------

G- 5-----------5- 5-------5-----8--

D- 5-----------5- 5-------5-----8-- 2X

A- 3-----------4- 3-------4-----6--

E- -------------- -----------------

wie Benziiiiiin!! Benziiiiiin!!


Jaa!!!



E- 3-3-3-3-3-3-3-3 1-1-1-1-1-1-1-1

B- --------------- ---------------

G- 5-5-5-5-5-5-5-5 4-4-4-4-4-4-4-4

D- --------------- ---------------

A- --------------- ---------------

E- --------------- ---------------



2X

E- 3-3-3-3-3-3-3-3 1-1-1-1-6-6-6-6

B- --------------- ---------------

G- 5-5-5-5-5-5-5-5 4-4-4-4-8-8-8-8

D- --------------- ---------------

A- --------------- ---------------

E- --------------- ---------------



------------------------------------------------


1.gitar

E- ----------- -----------

B- ----------- -----------

G- ----------- ----------- >>nakarata kadar

D- 5-4-5-4-5h8 5-4-5-4-5h8

A- ----------- -----------

E- ----------- -----------



Brauch keinen Freund, kein Kokain

Brauch weder Arzt noch Medizin

Brauch keine Frau, nur Vaselin

etwas Nitroglyzerin

Ich brauche Geld für Gasolin

explosiv wie Kerosin

mit viel Oktan und frei von Blei


einen Kraftstoff,,,,,,,!!!


E- -------------- -----------------

B- -------------- -----------------

G- 5-----------5- 5-------5-----8--

D- 5-----------5- 5-------5-----8-- 2X

A- 3-----------4- 3-------4-----6--

E- -------------- -----------------


wie Benziiiiiin!! Benziiiiiin!!

GIB MIR BENZİN!!!!

Es fließt durch meine Venen >

Es schläft in meinen Tränen > (nakaratta vocal benziin derken;

Es läuft mir aus den Ohren > backwocal bu sözleri söylicek)

Herz und Nieren sind Motoren >

wie Jaa!!!

E- 3-3-3-3-3-3-3-3 1-1-1-1-1-1-1-1

B- --------------- ---------------

G- 5-5-5-5-5-5-5-5 4-4-4-4-4-4-4-4

D- --------------- ---------------

A- --------------- ---------------

E- --------------- ---------------



2X(processör varsa JET tonu kullanın)

E- 3-3-3-3-3-3-3-3 1-1-1-1-6-6-6-6

B- --------------- ---------------

G- 5-5-5-5-5-5-5-5 4-4-4-4-8-8-8-8

D- --------------- ---------------

A- --------------- ---------------

E- --------------- ---------------

--------------------------------------------------------

E- ----------- -----------

B- ----------- -----------

G- ----------- -----------

D- 5-4-5-4-5h8 5-4-5-4-5h8

A- ----------- -----------

E- ----------- -----------


benziin...


Willst du dich von etwas trennen

dann musst du es verbrennen

Willst du es nie wieder sehen

lass es schwimmen in Benzin


E- -------------- -----------------

B- -------------- -----------------

G- 5-----------5- 5-------5-----8--

D- 5-----------5- 5-------5-----8-- 2x

A- 3-----------4- 3-------4-----6--

E- -------------- -----------------



in Benziiiiiin!! Benziiiiiin!!

(Ja benzin)

(Ich brauche Benzin)

(Gib mir Benzin)

Linkback: https://www.buyuknet.com/rammstein-benzin-akor-t29439.0.html

Etiket:
 

Bu bilgi size yardimci oldu mu?

EvetHayır
Rammstein - Benzin akor
Rammstein - Benzin akor
(Ortalama: 5 üzerinden 2.5 - 2 Oy)
2
Rammstein - Benzin akor

Rammstein - Benzin akor »Benzin INTRO 1.gitar E- ----------- ----------- ----------- B- ----------- ----------- ----------- G- ----------- ----------- -----------