Red Hot Chili Peppers - On Mercury

Buyuknet15.10.2010 - 01:59 |
 Verse

-|-7---3---5---2-|-

-|-7---3---5---2-|-

-|-8---4---6---3-|-

-|-9---5---7---4-|-

-|---------------|-

-|---------------|-

 

Bridge

-|-3----2------|-

-|-3----2----5-|-

-|-4----3----4-|-

-|-5----4----2-|-

-|-5----4------|-

-|-3----2------|-

 

Chorus

-|-7-----5--7-|-

-|-7--7--5--8-|-

-|-7--7--6--9-|-

-|-9--7--7--9-|-

-|-9--5--7--7-|-

-|-7-----5----|-

Linkback: https://www.buyuknet.com/red-hot-chili-peppers-on-mercury-t29201.0.html

Etiket:
 

Bu bilgi size yardimci oldu mu?

EvetHayır
Red Hot Chili Peppers - On Mercury
Red Hot Chili Peppers - On Mercury
(Ortalama: 5 üzerinden 2.5 - 2 Oy)
2
Red Hot Chili Peppers - On Mercury

Red Hot Chili Peppers - On Mercury » Verse -|-7---3---5---2-|- -|-7---3---5---2-|- -|-8---4---6---3-|- -|-9---5---7---4-|- -|---------------|- -|---------------|-   Bridge