Red Hot Chili Peppers - One Big Mob

Buyuknet15.10.2010 - 02:00 |
 INTRO (0:00)

e|--------------------/14-14-14-14-----------------------------|

B|--------------------/14-14-14-14-----------------------------|

G|-------------------------------------------------------------|

D|-------4-X-2-X-4-X------------------4-X-2-X-4-X-2-2-2~-------|

A|-------4-X-2-X-4-X------------------4-X-2-X-4-X--------------|

E|-0/---2-X-0-X-2-X------------------2-X-0-X-2-X--------------|

 

e|---------------/14-14-14-14---------------17B-17B~~~---------|

B|---------------/14-14-14-14----------------------------------|

G|-------------------------------------------------------------|

D|-4-X-2-X-4-X-----------------4-X-2-X-4-X---------------------|

A|-4-X-2-X-4-X-----------------4-X-2-X-4-X---------------------|

E|-2-X-0-X-2-X-----------------2-X-0-X-2-X---------------------|

 

e|--------------/14-14-14-14-----------------------------------|

B|--------------/14-14-14-14-----------------------------------|

G|-------------------------------------------------------------|

D|-4-X-2-X-4-X------------------4-X-2-X-4-X-4-4-4-4-4-4--------|

A|-4-X-2-X-4-X------------------4-X-2-X-4-X--------------------|

E|-2-X-0-X-2-X------------------2-X-0-X-2-X--------------------|

 

e|--------------/14-14-14-14-----------------------------------|

B|--------------/14-14-14-14-----------------------------------|

G|-------------------------------------------------------------|

D|-4-X-2-X-4-X------------------4-X-2-X-4-X-X-4-X-2------------|

A|-4-X-2-X-4-X------------------4-X-2-X-4-X--------------------|

E|-2-X-0-X-2-X------------------2-X-0-X-2-X--------------------|

 

e|--------------/14-14-14-14-----------------------------------|

B|--------------/14-14-14-14-----------------------------------|

G|------------------------------------------4-4-4-4-4-4--------|

D|-4-X-2-X-4-X------------------4-X-2-X-4-X--------------------|

A|-4-X-2-X-4-X------------------4-X-2-X-4-X--------------------|

E|-2-X-0-X-2-X------------------2-X-0-X-2-X--------------------|

 

e|--------------/14-14-14-14-----------------------------------|

B|--------------/14-14-14-14-----------------------------------|

G|------------------------------9-X-8-X-9-X-8--6~--------------|

D|-4-X-2-X-4-X------------------9-X-8-X-9-X-8--6~--------------|

A|-4-X-2-X-4-X------------------7-X-6-X-7-X-6--4~--------------|

E|-2-X-0-X-2-X-------------------------------------------------|

 

  CHORUS (0:24) (AUTO-WAH)

e|-------------------------------------------------------------|

B|-------------------------------------------------------------|

G|-------------------------------------------------------------|

D|-----4--4-2-3-4B-----4--4--------------4--4-2-3-4B-----------|

A|--------------------------0-2-3-4----------------------------|

E|-0-2-------------0-2---------------0-2-----------------------|

 

e|-------------------------------------------------------------|

B|-------------------------------------------------------------|

G|-------------------------------------------------------------|

D|-----4--4----------------------------------------------------|

A|----------0-2-3----------------------------------------------|

E|-0-2---------------------------------------------------------|

 

(WAH OFF)

e|-----------------------------|

B|------2~--------------------|

G|-4~---2~--------------------|

D|-4~---2~--------------------|

A|-2~---0~--------------------|

E|-----------------------------|

 

  VERSE (0:35) (AUTO-WAH)

e|-------------------------------------------------------------|

B|-------------------------------------------------------------|

G|-------------------------------------------------------------|

D|-----4--4-2-3-4B-----4--4--------------4--4-2-3-4B-----------|

A|--------------------------0-2-3-4----------------------------|

E|-0-2-------------0-2---------------0-2-----------------------|

 

e|-------------------------------------------------------------|

B|-------------------------------------------------------------|

G|-------------------------------------------------------------|

D|-----4--4----------------------------------------------------|

A|----------0-2-3----------------------------------------------|

E|-0-2---------------------------------------------------------|

 

(WAH OFF)

e|-----------------------------|

B|------2~--------------------|

G|-4~---2~--------------------|

D|-4~---2~--------------------|

A|-2~---0~--------------------|

E|-----------------------------|

 

  CHORUS (0:45) (AUTO-WAH)

e|-------------------------------------------------------------|

B|-------------------------------------------------------------|

G|-------------------------------------------------------------|

D|-----4--4-2-3-4B-----4--4--------------4--4-2-3-4B-----------|

A|--------------------------0-2-3-4----------------------------|

E|-0-2-------------0-2---------------0-2-----------------------|

 

e|-------------------------------------------------------------|

B|-------------------------------------------------------------|

G|-------------------------------------------------------------|

D|-----4--4----------------------------------------------------|

A|----------0-2-3----------------------------------------------|

E|-0-2---------------------------------------------------------|

 

(WAH OFF)

e|-----------------------------|

B|------2~--------------------|

G|-4~---2~--------------------|

D|-4~---2~--------------------|

A|-2~---0~--------------------|

E|-----------------------------|

 

  VERSE (0:55)

e|-------------------------------------------------------------|

B|-------------------------------------------------------------|

G|-------------------------------------------------------------|

D|-----4--4-2-3-4B-----4--4--------------4--4-2-3-4B-----------|

A|--------------------------0-2-3-4----------------------------|

E|-0-2-------------0-2---------------0-2-----------------------|

 

e|-------------------------------------------------------------|

B|-------------------------------------------------------------|

G|-------------------------------------------------------------|

D|-----4--4----------------------------------------------------|

A|----------0-2-3----------------------------------------------|

E|-0-2---------------------------------------------------------|

 

(WAH OFF)

e|-----------------------------|

B|------2~--------------------|

G|-4~---2~--------------------|

D|-4~---2~--------------------|

A|-2~---0~--------------------|

E|-----------------------------|

 

  BRIDGE INTRO (1:06)

e|-------------------------------------------------------------|

B|------------7~~~~(echo)~~~~~~-------------------------------|

G|-4~---------7~~~~(echo)~~~~~~-------------------------------|

D|-4~---------7~~~~(echo)~~~~~~-------------------------------|

A|-2~----------------------------------------------------------|

E|-------------------------------------------------------------|

 

e|-------------------------------------------------------------|

B|------------7~~~~(echo)~~~~~~/19----------------------------|

G|-4~---------7~~~~(echo)~~~~~~/19----------------------------|

D|-4~---------7~~~~(echo)~~~~~~/19----------------------------|

A|-2~----------------------------------------------------------|

E|-------------------------------------------------------------|

 

  BRIDGE BODY (1:24) (MIX THESE UP WITH VARIATIONS)

e|-------------------------------------------------------------|

B|------------7~----------------------------------------------|

G|-4~---------7~----------------------------------------------|

D|-4~---------7~----------7-6~---4~---------------------------| 

A|-2~----------------7-8h9-------------------------------------|   

E|-------------------------------------------------------------|   

                                                                    12X

e|-------------------------------------------------------------|    /

B|------------7~----------------------------------------------|   /

G|-4~---------7~----------------------------------------------|  /

D|-4~---------7~----------7-----------------------------------| /

A|-2~----------------7-8h9---7~---5~---------------------------|/

E|-------------------------------------------------------------|

 

  BRIDGE OUTRO (3:10)

e|-------------------------------------------------------------|

B|-------------------------------------------------------------|

G|-------------------------------------------------------------|

D|-------------------------7-6---------------------------------|

A|-2~---------4H5----7-8h9------5------------------------------|

E|-------------------------------------------------------------|

 

e|-------------------------------------------------------------|

B|-------------------------------------------------------------|

G|------------4------------------------------------------------|

D|------------4-----------7-6----------------------------------|

A|-2~---------------7-8h9---6--5-------------------------------|

E|-----------------------------5-------------------------------|

 

e|-------------------------------------------------------------|

B|-------------------------------------------------------------|

G|------------4------------------------------------------------|

D|------------4---------7-6------------------------------------| 3X

A|-2~---------------7-9---6--5---------------------------------|

E|---------------------------5---------------------------------|

 

e|-------------------------------------------------------------|

B|-------------------------------------------------------------|

G|-----------4-------------------------------------------------|

D|---4----4--4---------7-6--6----------------------------------|

A|-2-2----2--------7-9---6--6-5---5-5-5-5-5-5-5----------------|

E|----------------------------5---5-5-5-5-5-5-5----------------|

 

e|-----------------------7-7-7-7-7-----------------------------|

B|-----------------------7-7-7-7-7-----------------------------|

G|-4-4-4-4-4-4-4-4-4-4-4-4-4-4-4-4-----------------------------|

D|-4-4-4-4-4-4-4-4-4-4-4-4-4-4-4-4-----------------------------|

A|-2-2-2-2-2-2-2-2-2-2-2---------------------------------------|

E|-----------------------7-7-7-7-7-----------------------------|

 

e|-7-7-7-7-7-7-7-7-7-7-7-7-7-7-7-7-----------------------------|

B|-7-7-7-7-7-7-7-7-7-7-7-7-7-7-7-7-----------------------------|

G|-4-4-4-4-4-4-4-4-4-4-4-4-4-4-4-4-----------------------------|

D|-4-4-4-4-4-4-4-4-4-4-4-4-4-4-4-4-----------------------------|

A|-------------------------------------------------------------|

E|-7-7-7-7-7-7-7-7-7-7-7-7-7-7-7-7-----------------------------|

 

e|-7-7-7-7-7-7-7-7-7-7-7-7-7-7-7-7-----------------------------|

B|-7-7-7-7-7-7-7-7-7-7-7-7-7-7-7-7-----------------------------|

G|-------------------------------------------------------------|

D|-------------------------------------------------------------|

A|-------------------------------------------------------------|

E|-7-7-7-7-7-7-7-7-7-7-7-7-7-7-7-7-----------------------------|

 

e|-7-7-7-7-7-7-7-7-7-7-7-7-7-7-7-7-----------------------------|

B|-7-7-7-7-7-7-7-7-7-7-7-7-7-7-7-7-----------------------------|

G|-------------------------------------------------------------|

D|-------------------------------------------------------------|

A|-------------------------------------------------------------|

E|-7-7-7-7-7-7-7-7-7-7-7-7-7-7-7-7-----------------------------|

 

e|-7-7-7-7-7-7-7-7-7-7-7-7-7-7-7-7-----------------------------|

B|-7-7-7-7-7-7-7-7-7-7-7-7-7-7-7-7-----------------------------|

G|-------------------------------------------------------------|

D|-------------------------------------------------------------|

A|-------------------------------------------------------------|

E|-7-7-7-7-7-7-7-7-7-7-7-7-7-7-7-7-----------------------------|

 

  (4:12) (SLIDE WITH WAH FROM 7TH FRET TO 17TH FREM WITH TREMELLO STRUMMING)

e|-7/-/-/-/-/-/-/17--------------------------------------------|

B|-7/-/-/-/-/-/-/17--------------------------------------------|

G|-------------------------------------------------------------|

D|-------------------------------------------------------------|

A|-------------------------------------------------------------|

E|-------------------------------------------------------------|

 

 

  REPEAT SONG INTRO (4:14)

e|--------------------/14-14-14-14-----------------------------|

B|--------------------/14-14-14-14-----------------------------|

G|-------------------------------------------------------------|

D|-------4-X-2-X-4-X------------------4-X-2-X-4-X-2-2-2~-------|

A|-------4-X-2-X-4-X------------------4-X-2-X-4-X--------------|

E|-0/---2-X-0-X-2-X------------------2-X-0-X-2-X--------------|

 

e|---------------/14-14-14-14---------------15B-15B~B~B~B~B----|

B|---------------/14-14-14-14----------------------------------|

G|-------------------------------------------------------------|

D|-4-X-2-X-4-X-----------------4-X-2-X-4-X---------------------|

A|-4-X-2-X-4-X-----------------4-X-2-X-4-X---------------------|

E|-2-X-0-X-2-X-----------------2-X-0-X-2-X---------------------|

 

e|--------------/14-14-14-14-----------------------------------|

B|--------------/14-14-14-14-----------------------------------|

G|-------------------------------------------------------------|

D|-4-X-2-X-4-X------------------4-X-2-X-4-X-4-4-4-4-4-4--------|

A|-4-X-2-X-4-X------------------4-X-2-X-4-X--------------------|

E|-2-X-0-X-2-X------------------2-X-0-X-2-X--------------------|

 

e|--------------/14-14-14-14-----------------------------------|

B|--------------/14-14-14-14-----------------------------------|

G|-------------------------------------------------------------|

D|-4-X-2-X-4-X------------------4-X-2-X-4-X-X-4-X-2------------|

A|-4-X-2-X-4-X------------------4-X-2-X-4-X--------------------|

E|-2-X-0-X-2-X------------------2-X-0-X-2-X--------------------|

 

e|--------------/14-14-14-14-----------------------------------|

B|--------------/14-14-14-14-----------------------------------|

G|-------------------------------------------------------------|

D|-4-X-2-X-4-X------------------4-X-2-X-4-X-4-4-4-4-4-4--------|

A|-4-X-2-X-4-X------------------4-X-2-X-4-X--------------------|

E|-2-X-0-X-2-X------------------2-X-0-X-2-X--------------------|

 

e|--------------/14-14-14-14-----------------------------------|

B|--------------/14-14-14-14-----------------------------------|

G|------------------------------9-X-8-X-9-X-8--6~--------------|

D|-4-X-2-X-4-X------------------9-X-8-X-9-X-8--6~--------------|

A|-4-X-2-X-4-X------------------7-X-6-X-7-X-6--4~--------------|

E|-2-X-0-X-2-X-------------------------------------------------|

 

  CHORUS (4:38) (AUTO-WAH)

e|-------------------------------------------------------------|

B|-------------------------------------------------------------|

G|-------------------------------------------------------------|

D|-----4--4-2-3-4B-----4--4--------------4--4-2-3-4B-----------|

A|--------------------------0-2-3-4----------------------------|

E|-0-2-------------0-2---------------0-2-----------------------|

 

e|-------------------------------------------------------------|

B|----------------------2~------------------------------------|

G|-----------------4~---2~------------------------------------|

D|-----4--4--------4~---2~------------------------------------|

A|----------0-2-3--2~---0--------------------------------------|

E|-0-2---------------------------------------------------------|

 

  VERSE (4:48) (AUTO-WAH)

e|-------------------------------------------------------------|

B|-------------------------------------------------------------|

G|-------------------------------------------------------------|

D|-----4--4-2-3-4B-----4--4--------------4--4-2-3-4B-----------|

A|--------------------------0-2-3-4----------------------------|

E|-0-2-------------0-2---------------0-2-----------------------|

 

e|-------------------------------------------------------------|

B|-------------------------------------------------------------|

G|-------------------------------------------------------------|

D|-----4--4----------------------------------------------------|

A|----------0-2-3----------------------------------------------|

E|-0-2---------------------------------------------------------|

 

(WAH OFF)

e|-----------------------------|

B|------2~--------------------|

G|-4~---2~--------------------|

D|-4~---2~--------------------|

A|-2~---0~--------------------|

E|-----------------------------|

 

  CHORUS (4:59)

e|-------------------------------------------------------------|

B|-------------------------------------------------------------|

G|-------------------------------------------------------------|

D|-----4--4-2-3-4B-----4--4--------------4--4-2-3-4B-----------|

A|--------------------------0-2-3-4----------------------------|

E|-0-2-------------0-2---------------0-2-----------------------|

 

e|-------------------------------------------------------------|

B|-------------------------------------------------------------|

G|-------------------------------------------------------------|

D|-----4--4----------------------------------------------------|

A|----------0-2-3----------------------------------------------|

E|-0-2---------------------------------------------------------|

 

(WAH OFF)

e|-----------------------------|

B|------2~--------------------|

G|-4~---2~--------------------|

D|-4~---2~--------------------|

A|-2~---0~--------------------|

E|-----------------------------|

 

  VERSE (5:09)

e|-------------------------------------------------------------|

B|-------------------------------------------------------------|

G|-------------------------------------------------------------|

D|-----4--4-2-3-4B-----4--4--------------4--4-2-3-4B-----------|

A|--------------------------0-2-3-4----------------------------|

E|-0-2-------------0-2---------------0-2-----------------------|

 

e|-------------------------------------------------------------|

B|-------------------------------------------------------------|

G|-------------------------------------------------------------|

D|-----4--4----------------------------------------------------|

A|----------0-2-3----------------------------------------------|

E|-0-2---------------------------------------------------------|

 

(WAH OFF)

e|-----------------------------|

B|------2~--------------------|

G|-4~---2~--------------------|

D|-4~---2~--------------------|

A|-2~---0~--------------------|

E|-----------------------------|

 

  OUTRO (5:20) (WITH WAH)

e|-0~~~~~~--12*-12*-12*-12*-0-0-0-17B-B-----17--18-17-12-12-12-|

B|-0~~~~~~-----------------------------------------------------|

G|-------------------------------------------------------------|

D|-2~~~~~~-----------------------------------------------------|

A|-------------------------------------------------------------|

E|-------------------------------------------------------------|

 

e|-------------------------------------------------------------|

B|-12-12-12-10-10H12-12-10H12-12-10H12-12-10H12-12-10H12-12----|

G|-------------------------------------------------------------|

D|-------------------------------------------------------------|

A|-------------------------------------------------------------|

E|-------------------------------------------------------------|

 

e|-------------------------------------------------------------|

B|-10H12-10-10H12-10-12-12-12-10-12-10-12B--12B--12------------|

G|-------------------------------------------------------------|

D|-------------------------------------------------------------|

A|-------------------------------------------------------------|

E|-------------------------------------------------------------|

 

e|-------------------------------------------------------------|

B|-10-12B-12B-12B-B-B-B----------------------------------------|

G|-------------------------------------------------------------|

D|-------------------------------------------------------------|

A|-------------------------------------------------------------|

E|-------------------------------------------------------------|

 

  (5:41) (REPEAT UNTIL FADES OUT)

e|-------------------------------------------------------------|

B|-------------------------------------------------------------|

G|-9--------9--------7B------9--------9------7--8--------------|

D|-9--------9--------7B------9--------9------7--8--------------|

A|-7--------7--------5B------7--------7------5--6--------------|

E|---0-0--0---0-0--0---------0-0--0---0-0--0-------------------|

Linkback: https://www.buyuknet.com/red-hot-chili-peppers-one-big-mob-t29203.0.html

Etiket:
 

Bu bilgi size yardimci oldu mu?

EvetHayır
Red Hot Chili Peppers - One Big Mob
Red Hot Chili Peppers - One Big Mob
(Ortalama: 5 üzerinden 2.5 - 2 Oy)
2
Red Hot Chili Peppers - One Big Mob

Red Hot Chili Peppers - One Big Mob » INTRO (0:00) e|--------------------/14-14-14-14-----------------------------| B|--------------------/14-14-14-14-----------------------------|