Red Hot Chili Peppers - One Hot Minute

Buyuknet15.10.2010 - 01:59 |
 MAIN RIFF (let ring)

   NC (E7#9)

E-|--------------------------------|

B-|--------------------------------|

G-|--------6b7r6b7-6b~~~~~~~~~~~~~~|

D-|--------------------------------|

A-|---/7---------------------------|

E-|0-------------------------------|

 

AM I ALL ALONE? - 1st time

   NC (C)                           A

E-|--------------------------------|------------------8-8-+-8-8-+-11/|

B-|--------------------------------|------------------8-8-+-8-8-+-11/|

G-|5--(5)--5--(5)--5--(5)--5-7-7/9-|6--(6)--6--(6)--+----------------|

D-|x-------x-------x-------x-x-x---|x-------x------------------------|

A-|3---3-3-3---3-3-3---3-3-3-5-5/7-|4--(4)--4--(4)--+----------------|

E-|--------------------------------|5---5-5-5---5-5-+----------------|

 

MAIN RIFF 1st alteration ("She said all we")

   NC (E7#9)

E-|12-----------------------------|

B-|12-----------------------------| (and back to playing

G-|--------6b7r6b7-6b~~~~~~~~~~~~~~|  MAIN RIFF default style)

D-|--------------------------------|

A-|--------------------------------|

E-|----0---------------------------|

 

AM I ALL ALONE? - 2nd time                           _____    _____

   NC (C)                           A               /  3    /  3       

E-|--------------------------------|----------------8--8--8--8--8--8|

B-|--------------------------------|----------------8--8--8--8--8--8|

G-|5--(5)--5--(5)--5--(5)--5-7-7/9-|6--(6)--6--(6)--5--5--5--5--5--5|

D-|x-------x-------x-------x-x-x---|x-------x------------------------|

A-|3---3-3-3---3-3-3---3-3-3-5-5/7-|4--(4)--4--(4)-------------------|

E-|--------------------------------|5---5-5-5---5-5------------------|

 

AM I ALL ALONE? - 3rd time

   NC (C)                           A

E-|--------------------------------|--------------------------------|

B-|--------------------------------|--------------------------------|

G-|5--(5)--5--(5)--5--(5)--5-7-7/9-|6--(6)--6--(6)--6--(6)--98-76-|

D-|x-------x-------x-------x-x-x---|x-------x-------x-------x---x---|

A-|3---3-3-3---3-3-3---3-3-3-5-5/7-|4--(4)--4--(4)--4--(4)--76-54-|

E-|--------------------------------|5---5-5-5---5-5-5---5-5---------|

 

   NC (C)                           A

E-|--------------------------------|--------------------------------|

B-|--------------------------------|--------------------------------|

G-|5--(5)--5--(5)--5--(5)--5-7-7/9-|6-------------------------------|

D-|x-------x-------x-------x-x-x---|x-------------------------------|

A-|3---3-3-3---3-3-3---3-3-3-5-5/7-|4-------------------------------|

E-|--------------------------------|5-------------------------------|

 

 

SITTING IN THE FIRE

Use these chords:

F#   x  9  11 11 11 x

E    x  7  9  9  9  x

E4   x  7  9  9  10 x  (actually Esus4)

B    x  2  4  4  4  x

A5   5  7  7  x  x  x

 

Strumming pattern w/ beat count below:

 F#            E        E4 E      B             A5              NC

|o-------o-----o-+-o-----o-o-o-o-|o-------o-----o-+-o-----o-o-o-x-|

 

 1   -   2   -   3   -   4   -    1   -   2   -   3   -   4   -   

 

The second time you reach this part, the last 2 beats of the 2nd measure are replaced by this riff:

 

A-|--2h4p2-0h2-----|

E-|------------2---|

 

BRIDGE THING (let ring and vibrate)

   C7                                 D7

E-|--------------------------------|--------------------------------|

B-|--------------------------------|--------------------------------|

G-|3-------3-------3-------3-------|3/5-----5-------5-------5-------|

D-|2-------2-------2-------2-------|2/4-----4-------4-------4-------|

A-|----3-------3-------3-------3---|----5-------5-------5-----------|

E-|--------------------------------|----------------------------5--|

 

MAIN RIFF - 2nd alteration ("Close your eyes")

   NC (E7#9)

E-|12-----------------------------|

B-|12-----------------------------| (and back to playing

G-|--------------------------------|  MAIN RIFF default style)

D-|--------------------------------|

A-|--------7b*~~~~~~~~~~~~~~~~~~~~~|

E-|----0---------------------------|

   (*during this vibrato bend, let the pitch change gradually from E (7) to

     F# (9) by releasing less then you bend everytime)

 

BRIDGE THING - 2nd time (let ring and vibrate)

   C7                               D7

E-|--------------------------------|--------------------------------|

B-|--------------------------------|--------------------------------|

G-|3-------3-------3-------3-------|5-------5-------5-------5------|

D-|2-------2-------2-------2-------|4-------4-------4-------4------|

A-|----3-------3-------3-------3---|----5-------5-------5-------5--|

E-|--------------------------------|--------------------------------|

 

THE PART WITH THE INAUDIBLE LYRICS THAT END WITH "GOT IT NOW" OR "TAKE A BOW"

   E5                    D5  G2  D5

E-|0-------------------------------|

B-|0---------------------10+-10+-10|

G-|x---------------------7-+-7-+-7-|

D-|2---------------------7-+-7-+-7-|

A-|2---------------------x-+-10+-x-|

E-|0---------------------10------10|

 

   E                     D5  G2  D5

E-|--------------------------------|

B-|9---------------------10+-10+-10| repeat

G-|x---------------------7-+-7-+-7-| several

D-|9b*-------------------7-+-7-+-7-| times

A-|7b*-------------------x-+-10+-x-|

E-|0---------------------10------10|

   (* very slowly bend these up half a step, but leave the G# (9th fret on

      B-string) the same)

 

BRIDGE THING - 3rd time (let ring and vibrate)       _____    _____

   C7                               D7              /  3    /  3 

E-|--------------------------------|----------------8--8--8--8--8--8|

B-|--------------------------------|----------------8--8--8--8--8--8|

G-|3-------3-------3-------3-------|5-------5-------5--5--5--5--5--5|

D-|2-------2-------2-------2-------|4-------4------------------------|

A-|----3-------3-------3-------3/5-|----5-------5--------------------|

E-|--------------------------------|---------------------------------|

 

INTERLUDE (lots of feedback) (chords are suggested by bass)

note: somewhere along the way an acoustic guitar enters. It is mixed very much to the background

and not really worth the effort of figuring it out, it just slightly adds to the aerieness of

this section.

 

   E                   C    A

E-|----|----|----|----|----|----|

B-|----|----|----|----|----|----|

G-|----|----|----|----|----|----|

D-|----|----|----|----|----|----|

A-|----|----|----|----|3!--|4!--|

E-|0---|(0)-|(0)-|(0)-|----|----|

 

   E

E-|--------------------------------|----------------------------------|

B-|--------------------------------|----9!----------------(9)b(11)r(9)|

G-|--------------------------------|----------------------------------|

D-|--------------------------------|----------------------------------|

A-|7!------------------------------|----------------------------------|

E-|--------------------------------|----------------------------------|

 

E-|--------------------------------|----------------------------------|

B-|7!------------------------------|9!-------------------------------|

G-|--------------------------------|----------------------------------|

D-|--------------------------------|----------------------------------|

A-|--------------------------------|----------------------------------|

E-|--------------------------------|----------------------------------|

 

   C                                A          A clean guitar adds:

E-|--------------------------------|---------------------------------|

B-|--------------------------------|--------------4h5-----7------7h9-|

G-|--------------------------------|---------------------------------|

D-|5!------------------------------|6!-------------------------------|

A-|--------------------------------|---------------------------------|

E-|--------------------------------|---------------------------------|

 

Feedback continues, clean guitar:

   E

E-|--------------------------------|----------------------------------|

B-|(9)-----------------------------|------------10-109---9p7-----75-|

G-|--------------------------------|------------9--9-(9)--9(9)----97-|

D-|--------------------------------|----------------------------------|

A-|--------------------------------|----------------------------------|

E-|--------------------------------|----------------------------------|

 

   A/E                              E

E-|--------------------------------|--------------------------------|

B-|5-------------------------------|9-------------------------------|

G-|6---6---------------------------|9-------------------------------|

D-|7-------------------------------|9-------------------------------|

A-|--------------------------------|--------------------------------|

E-|--------------------------------|--------------------------------|

 

The distorted guitar becomes distinguishable again (lower staff)

Improvise a bit on the clean guitar with these voicings (upper staff)

   C                                A

E-|--------------------------------|--------------------------------|

B-|5---------------------------5---|5-------------------------------|

G-|5---------------------------5---|6-------------------------------|

D-|5---------------------------5---|7-------------------------------|

A-|--------------------------------|--------------------------------|

E-|--------------------------------|--------------------------------|

  |

E-|--------------------------------|--------------------------------|

B-|--------------------------------|--------------------------------|

G-|5------------------------------/|6-------------------------------|

D-|x-------------------------------|--------------------------------|

A-|3-------------------------------|--------------------------------|

E-|--------------------------------|--------------------------------|

 

Upper staff is now distorted as well:

   C                                A

E-|--------------------------------|--------------------------------|

B-|--------------------------------|--------------------------------|

G-|5-------------------------7-7/9-|6-------------------------------|

D-|x-------------------------x-x---|x-------------------------------|

A-|3-------------------------5-5/7-|4-------------------------------|

E-|--------------------------------|--------------------------------|

  |

E-|--------------------------------|--------------------------------|

B-|----------------5!--------------|7b*----------------------~~~~~~~|

G-|5-------------------------------|--------------------------------|

D-|--------------------------------|--------------------------------|

A-|--------------------------------|--------------------------------|

E-|--------------------------------|--------------------------------|

                                    *gradually bend up as high as possible

 

And after a last SITTING IN THE FIRE (with the riff replacement):

BRIDGE THING - revealing itself as the outro! (let ring and vibrate)

E-|--------------------------------|

B-|--------------------------------|

G-|3-------3-------3-------3-------| repeat 15 times

D-|2-------2-------2-------2-------| (yes. 15.)

A-|----3-------3-------3-------3---|

E-|--------------------------------|

 

AAAAAND

E-|-----...|

B-|9----...|

G-|x----...| feedback and all

D-|9----...|

A-|7----...|

E-|0----...|

 

Enjoy!

--Tjrd

Added by tabs-database.com and our distinguished partners

Linkback: https://www.buyuknet.com/red-hot-chili-peppers-one-hot-minute-t29202.0.html

Etiket:
 

Bu bilgi size yardimci oldu mu?

EvetHayır
Red Hot Chili Peppers - One Hot Minute
Red Hot Chili Peppers - One Hot Minute
(Ortalama: 5 üzerinden 2.5 - 2 Oy)
2
Red Hot Chili Peppers - One Hot Minute

Red Hot Chili Peppers - One Hot Minute » MAIN RIFF (let ring)    NC (E7#9) E-|--------------------------------| B-|--------------------------------|