Red Hot Chili Peppers - Otherside

Buyuknet15.10.2010 - 01:59 |
Intro/Chorus

E:-------------------------------------------------------------

B:-------------------------------------------------------------

G:-------------------------------------------------------------

D:---------------------7---7--9--7--5--------------------------

A:---7---7---7-----------------------------7-7---7----5---5--5-

E:-------------------------------------------------------------

 

 

Verse

 

E:--------------------------------15---------------------------

B:-------13----------12----------------------------------------

G:-------------------------------------------------------------

D:-------------------------------------------------------------

A:-------------------------------------------------------------

E:-------------------------------------------------------------

 

 

Strum

 

E:-------- 3---------- --5--------------------------------------

B:------- -1-------------5--------------------------------------

G:------- -2-------------6--------------------------------------

D:---------2-------------7--------------------------------------

A:-----------------------7--------------------------------------

E:-----------------------5--------------------------------------

 

 

Intro/Chorus Var 1

 

E:-----------------------------------------------------------------------------------------

B:-----------------------------------------------------------------------------------------

G:-----------------------------------------------------------------------------------------

D:-----------------------7---7---14--14--14---14---14--------------------------------------

A:----7---7---7-------------------------------------------------14---14---14-----14-----14-

E:-----------------------------------------------------------------------------------------

 

 

Intro/Chorus Var 2

 

E:-------------------------------------------------------------------------------------------------

B:-------------------------------------------------------------------------------------------------

G:-----------------------------------------------------------------------------14---14---14-----14-

D:-----------------------7---7---7\14--14--14---14---14---14---------------------------------------

A:----7---7---7--7---------------------------------------------------------------------------------

E:-------------------------------------------------------------------------------------------------

 

 

Intro/Chorus  Var  3

 

E:-----------------------------------------------------------------------------------------------------------

B:--------------------10--10-----12-\10------8-\10--\-8------------------------------------------------------

G:---9--9--9--------------------------------------------------------------9----9-----9--------7------7-----7-

D:---------------------7---7--------9-\--7-------5-\-7---\-5-------------------------------------------------

A:---7--7--7--------------------------------------------------------------7----7-----7--------5------5-----5-

E:-----------------------------------------------------------------------------------------------------------

 

 

Intro/Chorus  Var  4

 

E:---------------------------------------------------------------

B:---------------------------8-------13----13-------13-----------

G:-------9------9------------------------------------------------

D:---------------------------5-------10----10-------10-----------

A:-------7------7------------------------------------------------

E:---------------------------------------------------------------

 

 

 

Bridge

 

E:--------------7--7--7-----12--12--12---------7--7--7-----12--12--12----------7--7--7-----12--12--12--------7--7--7-

B:-------------------------------------------------------------------------------------------------------------------

G:-9--9--9-----------------------------------------------------------------------------------------------------------

D:-------------------------------------------------------------------------------------------------------------------

A:-------------------------------------------------------------------------------------------------------------------

E:-------------------------------------------------------------------------------------------------------------------

 

 

Short Solo

                                                          in bracket

E:-3-\-5---5---5--5----5-\-12--(-12---12---12-----14---12---12----12-----14----12-----14-----12------14----12-----14-----12-)-repeat-

B:----------------------------------------------------------------------------------------------------------------------------many---

G:----------------------------------------------------------------------------------------------------------------------------times--

D:-----------------------------------------------------------------------------------------------------------------------------------

A:-----------------------------------------------------------------------------------------------------------------------------------

E:-----------------------------------------------------------------------------------------------------------------------------------

 

 

End

 

E:------------------------

B:------------------------

G:------------------------

D:------------------------

A:--------------12--------

E:------------------------

 

 

H0W T0  PLAY           

 

Intro/Chorus                 3X

Intro/Chorus Var 1       1X

Verse                          3X 

Strum           1X

Verse                          3X 

Strum                          3X

Intro/Chorus               2X

Intro/Chorus Var 2      1X

Verse                          3X 

Strum                          1X

Verse                          3X 

Strum                          3X

Intro/Chorus  Var  3          2X

Intro/Chorus  Var  4          1X

Bridge                1X

Short Solo                   

End

 

----------------------------------------------------------------------------------------



"Without music life would be a mistake"

Linkback: https://www.buyuknet.com/red-hot-chili-peppers-otherside-t29199.0.html

Etiket:
 

Bu bilgi size yardimci oldu mu?

EvetHayır
Red Hot Chili Peppers - Otherside
Red Hot Chili Peppers - Otherside
(Ortalama: 5 üzerinden 2.5 - 2 Oy)
2
Red Hot Chili Peppers - Otherside

Red Hot Chili Peppers - Otherside »Intro/Chorus E:------------------------------------------------------------- B:-------------------------------------------------------------