Red Hot Chili Peppers - Out In L.A.

Buyuknet15.10.2010 - 01:59 |
 Intro & Verse:

e-|--6/7-x-x-7-x-x-7--x-7----7-x-x--|--6/7-x-x-7--x-x-x-x-x-x-x-x-x-x--|-

B-|--6/7-x-x-7-x-x-7--x-7----7-x-x--|--6/7-x-x-7--x-x-x-x-x-x-x-x-x-x--|-

G-|--6/7-x-x-7-x-x-7--x-7----7-x-x--|--6/7-x-x-7--x-x-x-x-x-x-x-x-x-x--|-

D-|--5/6-x-x-6-x-x-6--x-6----6-x-x--|--5/6-x-x-6--x-x-x-x-x-x-x-x-x-x--|-

A-|--6/7-x-x-7-x-x-7--x-7----7-x-x--|--6/7-x-x-7--x-x-x-x-x-x-x-x-x-x--|-

E-|---------------------------------|----------------------------------|-

 

 

e-|--6/7-x-x-7-x-x-7--x-7----7-x-x--|--6/7-x-x-7--x--x--x-12--x-10--|-

B-|--6/7-x-x-7-x-x-7--x-7----7-x-x--|--6/7-x-x-7--x--x--x-12--x-10--|-

G-|--6/7-x-x-7-x-x-7--x-7----7-x-x--|--6/7-x-x-7--x--x--x-12--x-10--|-

D-|--5/6-x-x-6-x-x-6--x-6----6-x-x--|--5/6-x-x-6--x--x---------------|-

A-|--6/7-x-x-7-x-x-7--x-7----7-x-x--|--6/7-x-x-7--x--x---------------|-

E-|---------------------------------|--------------------------------|-

 

Bass Solo:                                                                             

 

e-|--x-x-x-x-x-x-x-x-x-x-x-x-x-x-x-x--|--x-x-x-x-x-x-x-x-x-x-x-x-x-x-x-x--|-

B-|--x-x-x-x-x-x-x-x-x-x-x-x-x-x-x-x--|--x-x-x-x-x-x-x-x-x-x-x-x-x-x-x-x--|-

G-|--x-x-x-x-x-x-x-x-x-x-x-x-x-x-x-x--|--x-x-x-x-x-x-x-x-x-x-x-x-x-x-x-x--|-

D-|--x-x-x-x-x-x-x-x-x-x-x-x-x-x-x-x--|--x-x-x-x-x-x-x-x-x-x-x-x-x-x-x-x--|-

A-|--x-x-x-x-x-x-x-x-x-x-x-x-x-x-x-x--|--x-x-x-x-x-x-x-x-x-x-x-x-x-x-x-x--|-

E-|-----------------------------------|-----------------------------------|-

 

Outro: Same as the verse, but

play the fourth bar like this

 

e-|--6/7-x-x-7--x--x--12--|-

B-|--6/7-x-x-7--x--x--12--|-

G-|--6/7-x-x-7--x--x--12--|-

D-|--5/6-x-x-6--x--x-------|-

A-|--6/7-x-x-7--x--x-------|-

E-|------------------------|-

Linkback: https://www.buyuknet.com/red-hot-chili-peppers-out-in-la-t29198.0.html

Etiket:
 

Bu bilgi size yardimci oldu mu?

EvetHayır
Red Hot Chili Peppers - Out In L.A.
Red Hot Chili Peppers - Out In L.A.
(Ortalama: 5 üzerinden 2.5 - 2 Oy)
2
Red Hot Chili Peppers - Out In L.A.

Red Hot Chili Peppers - Out In L.A. » Intro & Verse: e-|--6/7-x-x-7-x-x-7--x-7----7-x-x--|--6/7-x-x-7--x-x-x-x-x-x-x-x-x-x--|-