Red Hot Chili Peppers - Porcelain

Buyuknet15.10.2010 - 01:59 |
Verse:

|--------------------------------------------------------------------------------|

|-2---------------------------0--2-----------------------------------------------|

|--------------------------------------------------------------------------------|

|--------------------------------------------------------------------------------|

|--------------------------------------------------------------------------------|

|--------------------------------------------------------------------------------|

 Por............c'lain                     Are you wasting away in your skin?

 

|--------------------------------------------------------------------------------|

|-2------------------------------------------------------------------------------|

|-----------------------------------------------2--------------------------------|

|-------------------------------------------4------------------------------------|

|--------------------------------------------------------------------------------|

|--------------------------------------------------------------------------------|

  Are you missing the love of your kin?          Drifting and floating and fading away

 

|---2--2--2--4--5--0-------------------------------------------------------------|

|---------------------2-------0--2-----------------------------------------------|

|--------------------------------------------------------------------------------|

|--------------------------------------------------------------------------------|

|--------------------------------------------------------------------------------|

|--------------------------------------------------------------------------------|

Por...............c'lain      Do you smell like a girl when you smile?

 

|-2---2---4---5---7---5---4---2-----------4--5----0------------------------------|

|-----------------------------------------------------2--------------------------|

|--------------------------------------------------------------------------------|

|--------------------------------------------------------------------------------|

|--------------------------------------------------------------------------------|

|--------------------------------------------------------------------------------|

Can you bear not to share with your child?     Drifting and floating and fading away

 

Chorus 1:

 

|--2--------2-------0----|---2------0---|--2-----2-----0-----|

|--3--------2-------2----|---3------2---|--3-----2-----2-----|

|--4--------2-------2----|---4------2---|--4-----2-----2-----|

|--4--------4-------2----|---4------2---|--4-----4-----2-----|

|--2--------4-------0----|---2------0---|--2-----4-----0-----|

|-----------2------------|--------------|--------2-----------|

  Lit  -   tle     lune     All    day    Lit - tle  lune

 

Interlude 1:

 

|-0---0--0---0---0---0--0--0--0--0--0--0----0----0---0---0------------------------|

|-0----------0-------------0------------------------------------------------------|

|-1-------------------------------------------------------------------------------|

|-2-------------------------------------------------------------------------------|

|-2-------------------------------------------------------------------------------|

|-0-------------------------------------------------------------------------------|

 

Then play the verse with the same notes.

 

The there is another, slightly different, chorus.

 

|--2------2----0---0------|--2----2-----------0---0-------|--2-------2-----0------|

|--3------2----2------2---|--3--------3-------2------2----|--3-------2-----2------|

|--4------2----2---------2|--4-----------4----2---------2-|--4-------2-----2------|

|--4------4----2----------|--4----------------2-----------|--4-------4-----2------|

|--2------4----0----------|--2----------------0-----------|--2-------4-----0------|

|---------2---------------|-------------------------------|----------2------------|

 Lit  -  tle  lune       All              day            Lit  -  tle  lune

 

Then play the following:

 

Interlude#1

Chorus#2

 

The finish on interlude#2:

 

|-0--0--0---0---0--0--0---0---0------0---0----0--0--------|

|-0--------------------------------------------------2----|

|-1-------------------------------------------------------|

|-2-------------------------------------------------------|

|-2-------------------------------------------------------|

|-0-------------------------------------------------------|

Linkback: https://www.buyuknet.com/red-hot-chili-peppers-porcelain-t29194.0.html

Etiket:
 

Bu bilgi size yardimci oldu mu?

EvetHayır
Red Hot Chili Peppers - Porcelain
Red Hot Chili Peppers - Porcelain
(Ortalama: 5 üzerinden 2.5 - 2 Oy)
2
Red Hot Chili Peppers - Porcelain

Red Hot Chili Peppers - Porcelain »Verse: |--------------------------------------------------------------------------------|