Red Hot Chili Peppers - Purple Stain

Buyuknet15.10.2010 - 01:59 |
Verse:

|--------------------------------|

|--------------------------------|

|--------------------------------| 5 times

|--------------------5-5---5-5---|

|--------------------------------|

|----------------12/-------------|

 

 

Bridge:

 

|---------------|

|---------------|

|---------------| 4 times

|-----5--7--7---|

|--7------------|

|---------------|

 

 

Chorus:

 

|-----------8--8---|

|-----------8--8---|

|------------------| 3 times

|-----5--7---------|

|--7---------------|

|------------------|

 

|------------|

|------------|

|--5---------|

|-----5--7---|

|------------|

|------------|

 

Play the whole chorus thing 2 times

 

Verse: same

 

Chorus: same, just twice

 

Interlude:

 

|------------------------------------|

|---------------8/-------------------|

|---------------7/-------------------| 4 times

|--5------------6/-----------5-------|     

|----7-7-7-5-7�7/----5-7-7-7---7-7---|

|------------------------------------|

 

 

Verse: same

 

Bridge: same

 

Chorus: same as second Chorus

 

Interlude: same

 

Outro:

 

I have no idea about the end of this song,

but most of the work is done by the great

bass. Try strumming this chord,

 

|------|

|--8---|

|�-7---|

|--6---|

|--7---|

|------|

 

or try some of those strange, shortened Bar�

chords that John uses in songs like  Around 

the world  or  Tear .You know?

 

Looks like the Peppers� latest tribute to

the god � like Jimi Hendrix (R.I.P).

Linkback: https://www.buyuknet.com/red-hot-chili-peppers-purple-stain-t29191.0.html

Etiket:
 

Bu bilgi size yardimci oldu mu?

EvetHayır
Red Hot Chili Peppers - Purple Stain
Red Hot Chili Peppers - Purple Stain
(Ortalama: 5 üzerinden 2.5 - 2 Oy)
2
Red Hot Chili Peppers - Purple Stain

Red Hot Chili Peppers - Purple Stain »Verse: |--------------------------------| |--------------------------------| |--------------------------------| 5 times