Red Hot Chili Peppers - Readymade

Buyuknet15.10.2010 - 01:59 |
Fig. 1 (volume swells)

_____________________________

|

E-------------------------------------------------------------------------------------------------

B--/9---------------------------------------------------------------------------------------------

G-------------------------------------------------------------------------------------------------

D-------------------------------------------------------------------------------------------------

A-------------------------------------------------------------------------------------------------

E-------------------------------------------------------------------------------------------------

 

E--/12--------------------------------------------------------------------------------------------

B-------------------------------------------------------------------------------------------------

G-------------------------------------------------------------------------------------------------

D-------------------------------------------------------------------------------------------------

A-------------------------------------------------------------------------------------------------

E-------------------------------------------------------------------------------------------------

|

E-------------------------------------------------------------------------------------------------

B--/12--------------------------------------------------------------------------------------------

G-------------------------------------------------------------------------------------------------

D-------------------------------------------------------------------------------------------------

A-------------------------------------------------------------------------------------------------

E-------------------------------------------------------------------------------------------------

|_____________________________

 

 

Fig. 2

E-------------------------------------------------------------------------------------------------

B-------------------------------------------------------------------------------------------------

G-------------------------------------------------------------------------------------------------

D--------------5-----------------------5-----------------------5-------------------------------5--

A--5--7--7--5-----7--5--7--5--7--7--5-----7--5--7--5--7--7--5-----7--5--7--------------5--6--7----

E--------------------------------------------------------------------------4--5--6--7-------------

 

Fig. 3

E--------------------------------------------------------------------------------------------------

B--------------------------------------------------------------------------------------------------

G--------------4-----------------------4-----------------------4--------------------------------4--

D--4--6--6--4-----6--4--6--4--6--6--4-----6--4--6--4--6--6--4-----6--4--6--------------4--5--6-----

A--------------------------------------------------------------------------3--4--5--6--------------

E--------------------------------------------------------------------------------------------------

 

Fig. 4

E---------------------------------------------------------------------------------------------------

B---------------------------------------------------------------------------------------------------

G---------------------------------------------------------------------------------------------------

D--------------5-----------------------5-----------------------5------------------------------------

A--5--7--7--5-----7--5--7--5--7--7--5-----7--5--7--5--7--7--5-----7--5--7--------------5--6--7-----

E--------------------------------------------------------------------------4--5--6--7---------------

 

Fig. 5

E----------------------------------------------------------------------------------------------------------

B----------------------------------------------------------------------------------------------------------

G--4--------4-----4--4--------4--4--------4--4--4--4--6--------6-----6--6--------6--6--------6-------------

D--5--------5-----5--5--------5--5--------5--5--5--5--7--------7-----7--7--------7--7--------7-------------

A--5--------5-----5--5--------5--5--------5--5--5--5--7--------7-----7--7--------7--7--------7------5--7---

E--3--------3-----3--3--------3--3--------3--3--3--3--5--------5-----5--5--------5--5--------5--7----------

 

Fig. 6

E-----------------------------------------------------------------------------------------------------------

B-----------------------------------------------------------------------------------------------------------

G-----------------------------------------------------------------------------------------------------------

D--------------------------5---------------------------------------------------5----------------------------

A--7-----7-----5--7----------------5--7----------------7-----7-----5--7----------------5--7-----------------

E-----------7-------------------7------------/7--5--3-----------7-------------------7------------/7--5--3---

 

Fig. 7

E-----------------------------------------------------------------------------------------------------------

B-----------------------------------------------------------------------------------------------------------

G-------------------------------------------------------------------------------------------------7---------

D--------------------------5---------------------------------------------------5-------------7/9-----97--5-

A--7-----7-----5--7----------------5--7----------------7-----7-----5--7----------------5--7-----------------

E-----------7-------------------7------------/7--5--3-----------7-------------------7-----------------------

 

 

Fig. 8

E---------------------------------------------------------------------------------------------------------------

B---------------------------------------------------------------------------------------------------------------

G---------------12h14p12-----12-------------12h14p12----12--------------12h14p12----12-----------------------12-

D--12-14-14-12-----------14-----12-14-14-12----------14-----12-14-14-12----------14-----------------12-13-14----

A---------------------------------------------------------------------------------------11-12-13-14-------------

E---------------------------------------------------------------------------------------------------------------

 

 

E--------------------------------------------------------------------------------------------------------------

B--------------------------------------------------------------------------------------------------------------

G--------------14rb-p12----12-------------14rb-p12----12-------------14rb-p12----12----------------------------

D--12-14-14-12----------14----12-14-14-12----------14----12-14-14-12----------14-----------------12-13-14------

A------------------------------------------------------------------------------------11-12-13-14---------------

E--------------------------------------------------------------------------------------------------------------

 

Fig. 9

_____________________________

|

E-----------------------------------------------------------------------------------------------------------

B-----------------------------------------------------------------------------------------------------------

G-----------------------------------------------------------------------------------------------------------

D--------------------------5---------------------------------------------------5----------------------------

A--7-----7-----5--7----------------5--7----------------7-----7-----5--7----------------5--7-----------------

E-----------7-------------------7------------/7--5--3-----------7-------------------7------------/7--5--3---

|

E-----------------------------------------------------------------------------------------------------------

B-----------------------------------------------------------------------------------------------------------

G-----------------------------------------------------------------------------------------------------------

D--14fb-~--------------------------------------------------------------------------------------------------

A-----------------------------------------------------------------------------------------------------------

E-----------------------------------------------------------------------------------------------------------

|_____________________________

 

Fig. 10

_____________________________

|

E-----------------------------------------------------------------------------------------------------------

B-----------------------------------------------------------------------------------------------------------

G-----------------------------------------------------------------------------------------------------------

D--------------------------5--------------------------------------------------------------------------------

A--7-----7-----5--7----------------5--7----------------7-----7-----5--7-----7------------------------------

E-----------7-------------------7------------/7--5--3-----------7-------------------------------------------

|

E-----------------------------------------------------------------------------------------------------------

B--5-------------------------------------------------------------------------------------------------------

G--7fb-~---------------------------------------------------------------------------------------------------

D-----------------------------------------------------------------------------------------------------------

A-----------------------------------------------------------------------------------------------------------

E-----------------------------------------------------------------------------------------------------------

|_____________________________

 

 

 

Fig. 11

E--15p12-----15p12-15p12-----15p12-15p12-----15p12-----15p12-15p12-----15p12-15p12----------

B-------15p12-----------15p12-----------15p12-----15p12-----------15p12-----------15p12-----

G-------------------------------------------------------------------------------------------

D-------------------------------------------------------------------------------------------

A-------------------------------------------------------------------------------------------

E-------------------------------------------------------------------------------------------

 

E--15p12-------------------------15p12----------15p12-----------15p12-----------------------

B-------15p12------15p12--------------15p12----------15p12-----------15p12------15p12-15p12-

G------------14p12-------14p12-------------14p12----------14p12-----------14p12-------------

D-------------------------------------------------------------------------------------------

A-------------------------------------------------------------------------------------------

E-------------------------------------------------------------------------------------------

 

E-------------------------------------------------------------------------------------------

B-------15p12-15p12-----15p12-15p12-----15p12-15p12-----15p12-15p12-----15p12---------------

G--14p12-----------14p12-----------14p12-----------14p12-----------14p12------14p12-14fb----

D-------------------------------------------------------------------------------------------

A-------------------------------------------------------------------------------------------

E-------------------------------------------------------------------------------------------

 

E-------------------------------------------------------------------------------------------

B-------------15----------------------------------------------------------------------------

G---14fb----------14fb--rb--p12---14---12--14fb--rb---12---14---12--14fb--rb---12---14---12-

D-------------------------------------------------------------------------------------------

A-------------------------------------------------------------------------------------------

E-------------------------------------------------------------------------------------------

 

E--------------------------------------------------------12------------12---12--12------12--

B------------------------------15----15tsb----rb-----15------15fb------15fb-----15fb--------

G--14fb---rb---12---14---12~----------------------------------------------------------------

D-------------------------------------------------------------------------------------------

A-------------------------------------------------------------------------------------------

E-------------------------------------------------------------------------------------------

 

E--15fb------17fb------rh(18)------fb(19)------rh(18)------fb(19)------rh(18)------fb(19)-~-

B-------------------------------------------------------------------------------------------

G-------------------------------------------------------------------------------------------

D-------------------------------------------------------------------------------------------

A-------------------------------------------------------------------------------------------

E-------------------------------------------------------------------------------------------

 

Fig. 12

E-------------------------------------------------------------------------------------------------

B--7------------6----------4----------------------------------------------------------------------

G--7------------6----------4----------------------------------------------------------------------

D--7------------6----------4----------------------------------------------------------------------

A--5------------4----------2----------------------------------------------------------------------

E-------------------------------------------------------------------------------------------------

 

E-------------------------------------------------------------------------------------------------

B-------------------------------------------------------------------------------------------------

G--6------------5----------3----------------------------------------------------------------------

D--7------------6----------4----------------------------------------------------------------------

A--7------------6----------4----------------------------------------------------------------------

E--5------------4----------2----------------------------------------------------------------------

 

E-------------------------------------------------------------------------------------------------

B--7------------6----------4----------------------------------------------------------------------

G--7------------6----------4----------------------------------------------------------------------

D--7------------6----------4----------------------------------------------------------------------

A--5------------4----------2----------------------------------------------------------------------

E-------------------------------------------------------------------------------------------------

                                  (Gradually bend the 7th on g string)

E-------------------------------------------------------------------------------------------------

B---------------------------------5--5--5--5--5--5--5--5--5--5--5--5--5--5--5--5--5--5--5--5--5---

G--6------------5----------3------7--7--7--7--7--7--7--7--7--7--7--7--7--7--7--7--7--7--7--7--7---

D--7------------6----------4----------------------------------------------------------------------

A--7------------6----------4----------------------------------------------------------------------

E--5------------4----------2----------------------------------------------------------------------

 

Fig. 13

E-------------------------------------------------------------------------------------------------

B-------------------------------------------------------------------------------------------------

G--------------4-----------------------4-----------------------4----------------------------------

D--4--6--6--4-----6--4--6--4--6--6--4-----6--4--6--4--6--6--4-----6--4--6--------------4--5--6---

A--------------------------------------------------------------------------3--4--5--6-------------

E-------------------------------------------------------------------------------------------------

 

Fig. 14

_____________________________

|

E-----------------------------------------------------------------------------------------------------------

B-----------------------------------------------------------------------------------------------------------

G-----------------------------------------------------------------------------------------------------------

D--------------------------5---------------------------------------------------5----------------------------

A--7-----7-----5--7----------------5--7----------------7-----7-----5--7----------------5--7-----------------

E-----------7-------------------7------------/7--5--3-----------7-------------------7------------/7--5--3---

|

E-----------------------------------------------------------------------------------------------------------

B-----------------------------------------------------------------------------------------------------------

G--/12------------------------------------------------------------------------------------------------------

D-----------------------------------------------------------------------------------------------------------

A-----------------------------------------------------------------------------------------------------------

E-----------------------------------------------------------------------------------------------------------

|

E--/15------------------------------------------------------------------------------------------------------

B-----------------------------------------------------------------------------------------------------------

G-----------------------------------------------------------------------------------------------------------

D-----------------------------------------------------------------------------------------------------------

A-----------------------------------------------------------------------------------------------------------

E-----------------------------------------------------------------------------------------------------------

|

E-----------------------------------------------------------------------------------------------------------

B-----------------------------------------------------------------------------------------------------------

G--/9-------------------------------------------------------------------------------------------------------

D-----------------------------------------------------------------------------------------------------------

A-----------------------------------------------------------------------------------------------------------

E-----------------------------------------------------------------------------------------------------------

|_____________________________

 

Fig. 15

_____________________________

|

E-----------------------------------------------------------------------------------------------------------

B-----------------------------------------------------------------------------------------------------------

G-----------------------------------------------------------------------------------------------------------

D--------------------------5--------------------------------------------------------------------------------

A--7-----7-----5--7----------------5--7----------------7-----7-----5--7-----7------------------------------

E-----------7-------------------7------------/7--5--3-----------7-------------------------------------------

|

E--/12------------------------------------------------------------------------------------------------------

B-----------------------------------------------------------------------------------------------------------

G-----------------------------------------------------------------------------------------------------------

D-----------------------------------------------------------------------------------------------------------

A-----------------------------------------------------------------------------------------------------------

E-----------------------------------------------------------------------------------------------------------

|

E-----------------------------------------------------------------------------------------------------------

B--/12------------------------------------------------------------------------------------------------------

G-----------------------------------------------------------------------------------------------------------

D-----------------------------------------------------------------------------------------------------------

A-----------------------------------------------------------------------------------------------------------

E-----------------------------------------------------------------------------------------------------------

|_____________________________

 

 

Arrangement

 

Bass into

Fig. 1

Fig. 2 (x4)

Fig. 3 (x2)

Fig. 2

Fig. 4

Fig. 5

Fig. 6

Fig. 5

Fig. 7

Fig. 2 (x2)

Fig. 8

Fig. 2

Fig. 4

Fig. 5

Fig. 9

Fig. 5

Fig. 10

Fig. 2 (x4) + Fig. 11

Fig. 12

Fig. 2 (x2)

Fig. 8

Fig. 3

Fig. 13

Fig. 5

Fig. 14

Fig. 5

Fig. 15

Linkback: https://www.buyuknet.com/red-hot-chili-peppers-readymade-t29190.0.html

Etiket:
 

Bu bilgi size yardimci oldu mu?

EvetHayır
Red Hot Chili Peppers - Readymade
Red Hot Chili Peppers - Readymade
(Ortalama: 5 üzerinden 2.5 - 2 Oy)
2
Red Hot Chili Peppers - Readymade

Red Hot Chili Peppers - Readymade »Fig. 1 (volume swells) _____________________________ |