Red Hot Chili Peppers - Right On Time

Buyuknet15.10.2010 - 01:59 |
 Verse 1:

     E5

e-|--12--x-12-x--12--x-x-12-12-x-12---|--12--x-12-x--12--x-x-12-12-x-12---|

B-|--12--x-12-x--12--x-x-12-12-x-12---|--12--x-12-x--12--x-x-12-12-x-12---|

G-|-----------------------------------|-----------------------------------|

D-|-----------------------------------|-----------------------------------|

A-|-----------------------------------|-----------------------------------|

E-|-----------------------------------|-----------------------------------|x4

 

 

Chorus 1:

 

     C#m            E                    B                F#m

e-|--9--------------7-----------------|--7----------------9---------------|

B-|--9--------------9-----------------|--7----------------10--------------|

G-|--9--------------9-----------------|--8----------------11--------------|

D-|--11-------------------------------|--9--------------------------------|

A-|-----------------------------------|-----------------------------------|

E-|-----------------------------------|-----------------------------------|x4

 

 

Verse 2:

 

     E5

e-|--12--x-12-x--12--x-x-12-12-x-12---|--12--x-12-x--12--x-x-12-12-x-12---|

B-|--12--x-12-x--12--x-x-12-12-x-12---|--12--x-12-x--12--x-x-12-12-x-12---|

G-|-----------------------------------|-----------------------------------|

D-|-----------------------------------|-----------------------------------|

A-|-----------------------------------|-----------------------------------|

E-|-----------------------------------|-----------------------------------|x4

 

 

Chorus 2:

 

     C#m            E                    B                F#m

e-|--9--------------7-----------------|--7----------------9---------------|

B-|--9--------------9-----------------|--7----------------10--------------|

G-|--9--------------9-----------------|--8----------------11--------------|

D-|--11-------------------------------|--9--------------------------------|

A-|-----------------------------------|-----------------------------------|

E-|-----------------------------------|-----------------------------------|x4

 

     F#m                                 E                Bm

e-|--14-------------14----------------|--12---------------14--------------|

B-|--14-------------14----------------|--12---------------15--------------|

G-|--14-------------14----------------|--13---------------16--------------|

D-|--16-------------------------------|--14-------------------------------|

A-|-----------------------------------|-----------------------------------|

E-|-----------------------------------|-----------------------------------|x3

 

 

     F#m                                 E 

e-|--14-------------14----------------|--12---x----17-17--17-17-17--------|

B-|--14-------------14----------------|--12---x--------------------17-----|

G-|--14-------------14----------------|--13-------------------------------|

D-|--16-------------16----------------|--14-------------------------------|

A-|-----------------------------------|-----------------------------------|

E-|-----------------------------------|-----------------------------------|

 

 

Verse 3:

 

     E5

e-|--12--x-12-x--12--x-x-12-12-x-12---|--12--x-12-x--12--x-x-12-12-x-12---|

B-|--12--x-12-x--12--x-x-12-12-x-12---|--12--x-12-x--12--x-x-12-12-x-12---|

G-|-----------------------------------|-----------------------------------|

D-|-----------------------------------|-----------------------------------|

A-|-----------------------------------|-----------------------------------|

E-|-----------------------------------|-----------------------------------|x4

 

Bass Solo:

 

     C#m

e-|--9--------------------------------|-----------------------------------|

B-|--9--------------------------------|-----------------------------------|

G-|--9--------------------------------|---------------REST----------------|

D-|--11-------------------------------|-----------------------------------|

A-|-----------------------------------|-----------------------------------|

E-|-----------------------------------|-----------------------------------|

 

 

e-|-----------------------9---9---9---|---9---9---9---9---9---9---9---9---|

B-|-----------------------------------|-----------------------------------|

G-|------REST-------------------------|-----------------------------------|

D-|-----------------------------------|-----------------------------------|

A-|-----------------------------------|-----------------------------------|

E-|-----------------------------------|-----------------------------------|

 

 

e-|---9---9---9---9---9---9---9---9---|---9---9---9---9---9---9---9---9---|

B-|-----------------------------------|-----------------------------------|

G-|-----------------------------------|-----------------------------------|

D-|-----------------------------------|-----------------------------------|

A-|-----------------------------------|-----------------------------------|

E-|-----------------------------------|-----------------------------------|

 

 

e-|---9---9---9---9---9---9---9---9---|---9---9---9---9---9---9---9---9---|

B-|-------------------------------9---|---9---9---9---9---9---9---9---9---|

G-|-----------------------------------|---------------------------9---9---|

D-|-----------------------------------|-----------------------------------|

A-|-----------------------------------|-----------------------------------|

E-|-----------------------------------|-----------------------------------|

 

 

End:

 

 

e-|--12-12-x-12--x-12-----------------|

B-|--12-12-x-12--x-12-----------------|

G-|-----------------------------------|

D-|-----------------------------------|

A-|-----------------------------------|

E-|-----------------------------------|

Linkback: https://www.buyuknet.com/red-hot-chili-peppers-right-on-time-t29188.0.html

Etiket:
 

Bu bilgi size yardimci oldu mu?

EvetHayır
Red Hot Chili Peppers - Right On Time
Red Hot Chili Peppers - Right On Time
(Ortalama: 5 üzerinden 2.5 - 2 Oy)
2
Red Hot Chili Peppers - Right On Time

Red Hot Chili Peppers - Right On Time » Verse 1:      E5 e-|--12--x-12-x--12--x-x-12-12-x-12---|--12--x-12-x--12--x-x-12-12-x-12---|