Red Hot Chili Peppers - Rolling Sly Stone

Buyuknet15.10.2010 - 01:59 |
Intro

Bass+Drums x2

 

Guitar+lyrics come in at 00:19

Verse (Clean)

|-------------|-------------|-------------------------------|

|-------------|-------------|-------------------------------|

|---------5-5-|---------5-5-|-----------5-5-----------------|

|---7-5-7-----|---7-5-7-----|---7-5-7-----------------------|

|-------------|-------------|---------------------5~~-7-5-3-|

|-------------|-------------|-------------------------------|

 

|------------|-------------|--------------------------------|

|------------|-------------|-------------------13-13-13-13--|

|--------5-5-|---------5-5-|-------------5-7h8-11-11-11-11--|

|--7-5-7-----|---7-5-7-----|---7-5-7-7-7-------12-12-12-12--|

|------------|-------------|--------------------------------|

|------------|-------------|--------------------------------|

 

|------------|-------------|--------------------------------|

|------------|-------------|-------------------13-13-13-13--|

|--------7-5-|---------7-5-|-------------5-7h8-11-11-11-11--|

|--7-5-7-----|--7-5-7------|---7-5-7-7-7-------12-12-12-12--|

|------------|-------------|--------------------------------|

|------------|-------------|--------------------------------|

 

|------------|-------------|--------------------------------|

|------------|-------------|--------------------------------|

|--------7-5-|---------7-5-|--------------5-----------------|

|--7-5-7-----|--7-5-7------|---7-5-7-7-7--------------------|

|------------|-------------|----------------5~~7-5-3--------|

|------------|-------------|--------------------------------|

Pre-Chorus

 

|---------------------------------------------|

|---5-5-5-5--8--8--8--8-3-3-3-3-10-10-10-10---|

|---6-6-6-6--9--9--9--9-4-4-4-4-11-11-11-11---|

|---7-7-7-7-10-10-10-10-5-5-5-5-12-12-12-12---|

|---7-7-7-7-10-10-10-10-5-5-5-5-12-12-12-12---|

|---------------------------------------------|

 

|-------------------------------------------------------|

|---5-5-5-5--8--8--8--8-3-3-3-3-10-10-10-10-10-10-10-10-|

|---6-6-6-6--9--9--9--9-4-4-4-4-11-11-11-11-11-11-11-11-|

|---7-7-7-7-10-10-10-10-5-5-5-5-12-12-12-12-12-12-12-12-|

|---7-7-7-7-10-10-10-10-5-5-5-5-12-12-12-12-12-12-12-12-|

|-------------------------------------------------------|

Chorus (let last chord of each bar ring)

|--------------|--------------|--------------|--------------|

|--5-5-5-------|--5-5-5-------|--5-5-5-------|--5-5-5-----7-|

|--5-5-5-4-4-6-|--5-5-5-4-4-6-|--5-5-5-4-4-6-|--5-5-5-4-4-7-|

|--5-5-5-5-5-7-|--5-5-5-5-5-7-|--5-5-5-5-5-7-|--5-5-5-5-5-7-|

|--3-3-3-5-5-7-|--3-3-3-5-5-7-|--3-3-3-5-5-7-|--3-3-3-5-5-5-|

|--------3-3-5-|--------3-3-5-|--------3-3-5-|--------3-3---|

 

Second Verse

|-------------|-------------|-------------------------------|

|-------------|-------------|-------------------------------|

|---------5-5-|---------5-5-|-----------5-5-----------------|

|---7-5-7-----|---7-5-7-----|---7-5-7-----------------------|

|-------------|-------------|-----------------5~~-7-5h7p5-3-|

|-------------|-------------|-------------------------------|

 

|------------|-------------|--------------------------------|

|------------|-------------|-------------------13-13-13-13--|

|--------5-5-|---------5-5-|-------------5-7h8-11-11-11-11--|

|--7-5-7-----|---7-5-7-----|---7-5-7-7-7-------12-12-12-12--|

|------------|-------------|--------------------------------|

|------------|-------------|--------------------------------|

 

|-------------|-------------|-------------------------------|

|-------------|-------------|-------------------------------|

|---------5-5-|---------5-5-|-----------5-5-----------------|

|---7-5-7-----|---7-5-7-----|---7-5-7---------------5--7----|

|-------------|-------------|-----------------5~~-7---------|

|-------------|-------------|-------------------------------|

 

|------------|-------------|--------------------------------|

|------------|-------------|-------------------13-13-13-13--|

|--------7-5-|---------7-5-|-------------5-7h8-11-11-11-11--|

|--7-5-7-----|--7-5-7------|---7-5-7-7-7-------12-12-12-12--|

|------------|-------------|--------------------------------|

|------------|-------------|--------------------------------|

 

|------------|-------------|--------------------------------|

|------------|-------------|-------------------13-13-13-13--|

|--------7-5-|---------7-5-|----------5-5-7h8--11-11-11-11--|

|--7-5-7-----|--7-5-7------|---7-5-7-----------12-12-12-12--|

|------------|-------------|--------------------------------|

|------------|-------------|--------------------------------|

 

Pre-Chorus

 

|---------------------------------------------|

|---5-5-5-5--8--8--8--8-3-3-3-3-10-10-10-10---|

|---6-6-6-6--9--9--9--9-4-4-4-4-11-11-11-11---|

|---7-7-7-7-10-10-10-10-5-5-5-5-12-12-12-12---|

|---7-7-7-7-10-10-10-10-5-5-5-5-12-12-12-12---|

|---------------------------------------------|

 

|-------------------------------------------------------|

|---5-5-5-5--8--8--8--8-3-3-3-3-10-10-10-10-10-10-10-10-|

|---6-6-6-6--9--9--9--9-4-4-4-4-11-11-11-11-11-11-11-11-|

|---7-7-7-7-10-10-10-10-5-5-5-5-12-12-12-12-12-12-12-12-|

|---7-7-7-7-10-10-10-10-5-5-5-5-12-12-12-12-12-12-12-12-|

|-------------------------------------------------------|

 

Chorus (let last chord of each bar ring)

|--------------|--------------|--------------|--------------|

|--5-5-5-------|--5-5-5-------|--5-5-5-------|--5-5-5-------|

|--5-5-5-4-4-6-|--5-5-5-4-4-6-|--5-5-5-4-4-6-|--5-5-5-4-4-6-|

|--5-5-5-5-5-7-|--5-5-5-5-5-7-|--5-5-5-5-5-7-|--5-5-5-5-5-7-|

|--3-3-3-5-5-7-|--3-3-3-5-5-7-|--3-3-3-5-5-7-|--3-3-3-5-5-7-|

|--------3-3-5-|--------3-3-5-|--------3-3-5-|--------3-3-5-|

 

|--------------|--------------|--------------|--------------|

|--5-5-5-------|--5-5-5-------|--5-5-5-------|--5-5-5-------|

|--5-5-5-4-4-6-|--5-5-5-4-4-6-|--5-5-5-4-4-6-|--5-5-5-4-4-6-|

|--5-5-5-5-5-7-|--5-5-5-5-5-7-|--5-5-5-5-5-7-|--5-5-5-5-5-7-|

|--3-3-3-5-5-7-|--3-3-3-5-5-7-|--3-3-3-5-5-7-|--3-3-3-5-5-7-|

|--------3-3-5-|--------3-3-5-|--------3-3-5-|--------3-3-5-|

 

Sorry I haven't figured out all of this yet but it starts

like this

Bridge (Clean)

|--10-10-10-12-10-10-10-10-12-10---|

|--10-10-10-10-10-10-10-10-10-10---|

|--11-11-11-11-11-11-11-11-11-11---|

|----------------------------------|

|----------------------------------|

|----------------------------------|

 

Then theres the Solo I haven't tabbed it out yet its all

done on a Wah pedal.You can just play around with your Wah

pedal for this bit.

 

Pre-Chorus

 

|---------------------------------------------|

|---5-5-5-5--8--8--8--8-3-3-3-3-10-10-10-10---|

|---6-6-6-6--9--9--9--9-4-4-4-4-11-11-11-11---|

|---7-7-7-7-10-10-10-10-5-5-5-5-12-12-12-12---|

|---7-7-7-7-10-10-10-10-5-5-5-5-12-12-12-12---|

|---------------------------------------------|

 

|-------------------------------------------------------|

|---5-5-5-5--8--8--8--8-3-3-3-3-10-10-10-10-10-10-10-10-|

|---6-6-6-6--9--9--9--9-4-4-4-4-11-11-11-11-11-11-11-11-|

|---7-7-7-7-10-10-10-10-5-5-5-5-12-12-12-12-12-12-12-12-|

|---7-7-7-7-10-10-10-10-5-5-5-5-12-12-12-12-12-12-12-12-|

|-------------------------------------------------------|

 

Chorus+Outro (strum the last chord of every bar alot)

|--------------------|--------------------|

|--5-5-5-------------|--5-5-5-------------|

|--5-5-5-4-4-6-6-6-6-|--5-5-5-4-4-6-6-6-6-|

|--5-5-5-5-5-7-7-7-7-|--5-5-5-5-5-7-7-7-7-|

|--3-3-3-5-5-7-7-7-7-|--3-3-3-5-5-7-7-7-7-|

|--------3-3-5-5-5-5-|--------3-3-5-5-5-5-|

 

|--------------------|--------------------|

|--5-5-5-------------|--5-5-5-----7-7-7-7-|

|--5-5-5-4-4-6-6-6-6-|--5-5-5-4-4-7-7-7-7-|

|--5-5-5-5-5-7-7-7-7-|--5-5-5-5-5-7-7-7-7-|

|--3-3-3-5-5-7-7-7-7-|--3-3-3-5-5-5-5-5-5-|

|--------3-3-5-5-5-5-|--------3-3---------|

 

|--------------------|--------------------|

|--5-5-5-------------|--5-5-5-------------|

|--5-5-5-4-4-6-6-6-6-|--5-5-5-4-4-6-6-6-6-|

|--5-5-5-5-5-7-7-7-7-|--5-5-5-5-5-7-7-7-7-|

|--3-3-3-5-5-7-7-7-7-|--3-3-3-5-5-7-7-7-7-|

|--------3-3-5-5-5-5-|--------3-3-5-5-5-5-|

 

|------------------------------|--------------------|

|--5-5-5-----------------------|--5-5-5-----7-7-7-7-|

|--5-5-5-4-4-6-6-6-6----5----5-|--5-5-5-4-4-7-7-7-7-|

|--5-5-5-5-5-7-7-7-7-5h7--5h7--|--5-5-5-5-5-7-7-7-7-|

|--3-3-3-5-5-7-7-7-7-----------|--3-3-3-5-5-5-5-5-5-|

|--------3-3-5-5-5-5-----------|--------3-3---------|

Linkback: https://www.buyuknet.com/red-hot-chili-peppers-rolling-sly-stone-t29185.0.html

Etiket:
 

Bu bilgi size yardimci oldu mu?

EvetHayır
Red Hot Chili Peppers - Rolling Sly Stone
Red Hot Chili Peppers - Rolling Sly Stone
(Ortalama: 5 üzerinden 2.5 - 2 Oy)
2
Red Hot Chili Peppers - Rolling Sly Stone

Red Hot Chili Peppers - Rolling Sly Stone »Intro Bass+Drums x2   Guitar+lyrics come in at 00:19 Verse (Clean) |-------------|-------------|-------------------------------|