Red Hot Chili Peppers - Savior |

Buyuknet15.10.2010 - 01:59 |
Intro:

E------13-------------------13----(13)---10------13---------10-------13-10-----------------------

B----------------------------------------------------------------------------------------------13---12-

G-------------------------------------------------------------------------------------12------------12-

D--------------------------------------------------------------------------------------------------------

A--------------------------------------------------------------------------------------------------------

E--------------------------------------------------------------------------------------------------------

 

 

Verse:

E-------------------------------------------------------------------------------------------------------

B-------------------------------------------------------------------------------------------------------

G-------(12)----(12)---------------10-12-10---------(10)---------------(10)/---------------------

D-------------------------------------------------------------------------------------------------------

A-------------------------------------------------------------------------------------------------------

E-------------------------------------------------------------------------------------------------------

 

 

E--------------------------------------------------------------------------------------------------------

B-------10-------10-----10-------10------------10----10--------10----10----10-------10----7---

G-------7---------7------7---------7-------------7------7---------7------7-----7---------7--------7

D-------9---------9------9---------9-------------9------9---------9------9-----9---------------7---

A-------7---------7------7---------7-------------7------7---------7------7-----7--------------------

E--------------------------------------------------------------------------------------------------------

 

 

 

E--------------------------------------------------------------------------------------------------------

B-------10-------10-----10-------10------------10----10--------10----10----10-------10---------

G-------7---------7------7---------7-------------7------7---------7------7-----7---------7----------

D-------9---------9------9---------9-------------9------9---------9------9-----9---------9----------

A-------7---------7------7---------7-------------7------7---------7------7-----7---------7----------

E---------------------------------------------------------------------------------------------0----------

 

 

E-----------3---------------3-----------------------------------------------------3------------3--------

B--------3--------------3------------3----------------3---6-----3-----------3-------3-------------3—

G----5------------5-------------5-----------------5------------------5----5------5------------5-------

D---------------------------------------------------------------------------------------------------------

A---------------------------------------------------------------------------------------------------------

E---------------------------------------------------------------------------------------------------------

 

 

E------------------------------------------3----------------------3--------------------------------------

B-------(3)---3---------3---6---3------3---------------------3-------3------3----------3—6-3---3-

G-----------------5-------------------5---------------------5--------5---------------5-------------5---

D---------------------------------------------------------------------------------------------------------

A---------------------------------------------------------------------------------------------------------

E----------------------------------------------------------------------------------------------------------

 

 

E----------3---------------3--------------------------------------------------3---------------3----------

B-------3----------------3--------------------------------------------------3---------------3------------

G-----5----------------5---------------5------------3-------------------5----------------5--------5----

D---------------------------------------------------------------------------------------------------------

A---------------------------------------------------------------------------------------------------------

E---------------------------------------------------------------------------------------------------------

 

 

E-------------------------------------------------3----------3-------------------------------3-----------

B---------3--------3------6------3-------3---------------3-------------3------3-------6----------3---

G----(5)------5-----------------------5-----------5---------------5----------5----------------5--------

D---------------------------------------------------------------------------------------------------------

A---------------------------------------------------------------------------------------------------------

E---------------------------------------------------------------------------------------------------------

 

 

 

 

E----------------3-------3---------------------------------------------3------------------3-------------

B---------3--------------------3-------3-------6-------3-------------3------3-----------------3-------

G----5-----------------------------5-----------5---------------5--------------------------5------------

D--------------------------------------------------------------------------------------------------5-----

A---------------------------------------------------------------------------------------------------------

E---------------------------------------------------------------------------------------------------------

 

 

E---------------------------------------------------------------------------------------------------------

B-------------------------------------------------------------------------------------------13-----------

G----------------------------------------------------------------12-------------12----------------12---

D-------------------10-10-12----------10-10-12----------10--------(12)------10---10-10-12-----

A------------10—12------------10—12------------10---12-----------------------12—12----------

E---------------------------------------------------------------------------------------------------------

 

 

E--------------------------------------------------------------------------13--------13------13----13

B-------------------------------13------13—10----------13---10---13------13—13---------------

G-----(12)-----12—12—12-------------------------12--------------------12-----------------------

D--------------------------------------------------------------------------------------------------------

A--------------------------------------------------------------------------------------------------------

E--------------------------------------------------------------------------------------------------------

 

 

E------13------------13---13--------13----(13)---10--------------10---13---13---------------------

B-------------------------------------------------------------13---(13)---13----------------------------

G---------------------------------------------------------------------------------------------------------

D----------------------------------------------------------------------------------------10/12---10-10-

A--------------------------------------------------------------------------------------------10-10-10--

E----------------------------------------------------------------------------------------------------------

 

 

E----------------------------------------------------------------------------------------------------------

B----------------------------------------------------------------------------------------------------------

G---------------------------------------------------------------------------------------------------------

D--------------------------------------10---10---10---10----------------------------------------------

A-----10----10----10-------10/12-------------------------12------12----10/12-------8-----8/12--------(12)---5---7------(7)---5-----------3---5-------------3----

E-----------------------------------------------------------------------------------------------------------------------------------------------------------------5---5-----

 

 

E----------------------------------------------------------------------------------------------------------

B----------------------------------------------------------------------------------------------------------

G----------------------5--------5---------------(5)------4-----4—5—4/2-----2---2---2/7---------7-------7------(7)---5----9---

D-------3----5/7---------7-------------------------------------------------------------------------------

A----5----------------------------------------------------------------------------------------------------

E----------------------------------------------------------------------------------------------------------

 

 

E----------------------------------------------------------------------------------------------------------

B----------------------------------------------------------------------------------------------------------

G-------------------(9)---------------9------(9)-----9-------(9)-----9----(9)-----9-----9----7-------

D---------------------------------------------------------------------------------------------------------

A---------------------------------------------------------------------------------------------------------

E----------------------------------------------------------------------------------------------------------

Linkback: https://www.buyuknet.com/red-hot-chili-peppers-savior-t29183.0.html

Etiket:
 

Bu bilgi size yardimci oldu mu?

EvetHayır
Red Hot Chili Peppers - Savior |
Red Hot Chili Peppers - Savior |
(Ortalama: 5 üzerinden 2.5 - 2 Oy)
2
Red Hot Chili Peppers - Savior |

Red Hot Chili Peppers - Savior | »Intro: E------13-------------------13----(13)---10------13---------10-------13-10-----------------------