Red Hot Chili Peppers - Scar Tissue (Tab)

Buyuknet15.10.2010 - 01:59 |
Intro:                                                                     

|------------------------------|------------------------------------|

|----10-----10----10----10--5--|-5--6---6----6---6-------6--5--5----|

|------------------------------|------------------------------------|

|------------------------------|------------------------------------|

|-8------8-----8-----8------3--|-3--5--------5---5---5---------3----|

|------------------------------|------------------------------------|

 

 

|-----------------------------|------------------------------------------|

|-----10----10----10----10-8--|-5--6----------8--6--8--6--5--6-----------|

|-----------------------------|------------------------------------------|

|-----------------------------|------------------------------------------|

|-8-------8-----8-----8-------|-3--5--------------------------------8----|

|-----------------------------|------------------------------------------|

 

Verse:                                   

|----------------------------------|--------------------------------------|

|-10----10----10---10--5--5--6-----|-6----6-----6--------6--5--5----------|

|----------------------------------|--------------------------------------|

|----------------------------------|--------------------------------------|

|----8-----8-----8-----3--3--5-----|----5----5------5----------3----8-----|

|----------------------------------|--------------------------------------|

 

 

|--------------------10-8----------|---------------------------------------|

|-10-----10----10------------------|---------------------------------------|

|----------------------------10----|-10---------10---9----7----5-----------|

|----------------------------------|---------------------------------------|

|-----8-----8-----8----------------|------------------------------------8--|

|----------------------------------|---------------------------------------|

 

Chorus:       

|------------------------------------|------------------------------------------|

|------------------------------------|-------6----6-----------------------------|

|-5-----5--5----5--------------7-----|-------7----7--7--------5-----5-----------|X

|-7-----7--7----5---------7----7-----|-------7----7--7--------5-----5-----------|2

|---------------3---------5----------|-------------------5----3-----3-------8---|

|--------------------5---------------|------------------------------------------|

 

 

verse2:                                   

|---------------------------------------------|-----------------------------------------|

|--10------10----10---------10----5--5--6-----|--6-------6-----6-------6--5--5----------|

|---------------------------------------------|-----------------------------------------|

|---------------------------------------------|-----------------------------------------|

|-------8-----8-----8-------------3--3--5-----|-------5-----5-----5----------3----8-----|

|---------------------------------------------|-----------------------------------------|

 

 

|-----------------------10-8--------------|--------13-12-10-------------|

|--10-------10----10----------------------|-----------------13----------|

|--------------------------------9--10----|--10-------------------------|

|-----------------------------------------|-----------------------------|

|-------8------8-----8--------------------|-----------------------8-----|

|-----------------------------------------|-----------------------------|

 

Chorus:

|-----------------------------------|-------------------------------------|

|-----------------------------------|--6----6-----------------------------|

|-5----5--5----5--------------7-----|--7----7--7--------5-----5-----------X

|-7----7--7----5---------7----7-----|--7----7--7--------5-----5-----------3

|--------------3---------5----------|--5-----------5----3-----------8-----|

|-------------------5---------------|-------------------------------------|               

 

the first little solo:

|--8-----------|------------|---------------|---------------|----------8--|

|------10(hold)|----(10)----|--10---8----8--|--8-10---10----|-10---12-----|

|--------------|------------|---------------|---------------|-------------|

|--------------|------------|---------------|---------------|-------------|

|--------------|------------|---------------|---------------|-------------|

|--------------|------------|---------------|---------------|-------------|

 

verse3:                                       

|------------------------------------|---------------------------------|

|--------10---10---10---10--5--5--6--|-6----6----6-----6--5--5---------|

|------------------------------------|---------------------------------|

|-7-9--------------------------------|---------------------------------|

|-5-7-8----8----8----8------3--3--5--|---5-----5----5--------3---8-----|

|------------------------------------|---------------------------------|                               

 

 

|-----------------------10-8------------|--------7--8--7--------------|

|--10------10----10--------------8--10--|--10-------------10----------|

|-----------------------------9--9--10--|-----------------------------|

|---------------------------------------|-----------------------------|

|-------8-----8-----8-------------------|-----------------------8-----|

|---------------------------------------|-----------------------------|

 

Chorus:                             

|---------------------------------------|-------------------------------------|

|---------------------------------------|--6----6-----------------------------|

|--5-----5--5----5----------------7-----|--7----7--7--------5-----5-----------|X

|--7-----7--7----5-----------7----7-----|--7----7--7--------5-----5-----------|2

|----------------3-----------5----------|--------------5----3-----------8-----|

|-----------------------5---------------|-------------------------------------|

 

verse4:                 

|-----------------------------------|----------------------------------------|

|-10---10----10---10----5--5--6-----|--6-------6-----6-------6--5--5---------|

|-----------------------------------|----------------------------------------|

|-----------------------------------|----------------------------------------|

|----8----8-----8-------3--3--5-----|-------5-----5-----5----------3-----8---|

|-----------------------------------|----------------------------------------|

                              36                                 

 

 

|----------------------10-8--------------|--------12-10-8----------|

|--10------10----10-------------8--10----|--10-------------10------|

|----------------------------9--9--10----|-------------------------|

|----------------------------------------|-------------------------|

|-------8-----8-----8--------------------|----------------------8--|

|----------------------------------------|-------------------------|

 

 

Chorus: 

|--------------------------------------|-------------------------------|

|--------------------------------------|--6----6-----------------------|

|*--5-----5--5----5-------------7------|--7----7--7--------5----5-----*X

|*--7-----7--7----5--------7----7------|--7----7--7--------5----5-----*2

|-----------------3--------5-----------|--5-----------5----3--------8--|

|---------------------5----------------|-------------------------------|

 

 

 

|-------------------------------------|------------------------------------------|

|-------------------------------------|--6------------6----------6----6----------|

|--5-----5--5----5--------------7-----|--7----7-------7----7-----7----7----7-----|

|--7-----7--7----5---------7----7-----|-------7------------7------------------7--|

|----------------3---------5----------|------------------------------------------|

|---------------------5---------------|------------------------------------------|

 

 

solo 2: (guitar 2)

|--8--10------|--10----8-------|-------------------|--8-------------|--8--10------|

|-------------|------------10--|--10---8----8------|--------10------|-------------|

|-------------|----------------|-------------------|----------------|-------------|

|-------------|----------------|-------------------|----------------|-------------|

|-------------|----------------|-------------------|----------------|-------------|

|-------------|----------------|-------------------|----------------|-------------|

 

 

|--12-8------|----------8-----------|--8-------------|10---12---12---13---13---------|

|--------10--|--10------------8-----|--------10------|-------------------------------|

|------------|----------------------|----------------|-------------------------------|

|------------|----------------------|----------------|-------------------------------|

|------------|----------------------|----------------|-------------------------------|

|------------|----------------------|----------------|-------------------------------|                   

 

 

guitar one plays this under the second solo:                                                             

 

|--------------------------------------------------|

|--------------------------------------------------|

|--------7--------7-----7--------7------------7----|

|--7--7-----7--7-----7-----7--7-----7--7---7-----7-|

|--------------------------------------------------|

|--------------------------------------------------|                                       

 

 

|--------------------------------------------------------|

|-6------------------------------------------------------|

|-7--7---------7--------7-----7--------7-----------5-----|

|----7---7--7-----7--7-----7-----7--7-----7--7--7-----5--|

|--------------------------------------------------------|

|--------------------------------------------------------|   

 

 

|-----------------------------------------------|-------------------------|

|-----------------------------------------------|-------------------------|

|-----5--------5-----5--------5-----------7-----|--------7--------7-----7-|

|-5-5----5--5-----5-----5--5-----5--5--5-----7--|--7--7-----7--7-----7----|

|-----------------------------------------------|-------------------------|

|-----------------------------------------------|-------------------------|                       

 

 

|------------------------|------------------------------------------------|

|------------------------|------------------------------------------------|

|-------7-----------7----|--------7--------7-----7--------7-----------7---|

|-7--7-----7--7--7-----7-|--7--7-----7--7-----7-----7--7-----7--7--7----7-|

|------------------------|------------------------------------------------|

|------------------------|------------------------------------------------|

 

 

|--------------------------------------------------|

|--------------------------------------------------|

|--------7--------7-----7--------7-----------5-----|

|--7--7-----7--7-----7-----7--7-----7--7--7-----5--|

|--------------------------------------------------|

|--------------------------------------------------|

 

 

|------------------------------------------------------|-------------------------------|end

|------------------------------------------------------|-------------------------------|guitar

|-----5------5--------5-----5--------5-----------7-----|--------7--------7-------------|one

|-5-5---5--5-----5--5-----5----5--5-----5--5--5-----7--|--7--7-----7--7-----7---9------|here!

|------------------------------------------------------|--------------------5---7---8--|

|------------------------------------------------------|-------------------------------|

 

verse5:                                                     

|----------------------------------------|-------------------------------------------|

|--10------10----10----10----5--5--6-----|--6-------6-------6-------6--5--5----------|

|----------------------------------------|-------------------------------------------|

|----------------------------------------|-------------------------------------------|

|-------8-----8-----8--------3--3--5-----|-------5-----5-------5----------3----8-----|

|----------------------------------------|-------------------------------------------|

 

 

|----------------------10-8-----------|---------------------------------|

|--10------10----10-------------------|---------------------------------|

|-------------------------------10----|10----10---9----7----------------|

|-------------------------------------|--------------------10-----------|

|-------8-----8-----8-----------------|---------------------------8-----|

|-------------------------------------|---------------------------------|

 

Chorus:                                   

|--------------------------------------|-------------------------------|

|--------------------------------------|--6----6-----------------------|

|*--5-----5--5----5--------------7-----|--7----7--7--------5----5-----*Play 3 and

|*--7-----7--7----5---------7----7-----|--7----7--7--------5----5-----*a half times

|-----------------3---------5----------|--5-----------5----3--------8--|

|---------------------5----------------|-------------------------------|

 

 

Outro:

|--17-------|--17---15-----15--|--17---------|--12---13--------|---------------------|

|-----------|------------------|--------17---|------------15---|-13--15--15--13--13--|

|-----------|------------------|-------------|-----------------|---------------------|

|-----------|------------------|-------------|-----------------|---------------------|

|-----------|------------------|-------------|-----------------|---------------------|

|-----------|------------------|-------------|-----------------|---------------------|       

 

 

|------------------------------------|-----------------|-------8----------------|

|--15---15----15----13---------------|---10--13--------|--10--------10----------|

|-------------------------14---------|------------12---|------------------------|

|------------------------------------|-----------------|------------------------|

|------------------------------------|-----------------|------------------------|

|------------------------------------|-----------------|------------------------|                   

 

 

|--------------5--|--------------|------------------------------|-------------|

|-----5-----------|--10----10----|--10----3---5--3----3--5------|-------------|

|--7-----7--------|--------------|-------------------------5----|--5--7-------|

|-----------------|--------------|------------------------------|--------7----|

|-----------------|--------------|------------------------------|-------------|

|-----------------|--------------|------------------------------|-------------|

 

 

|------------------|-13---12----8-----10------------|--8----------------------|

|-10---------------|------------------------10------|--------8-----10---(10)--|

|------------------|--------------------------------|-------------------------|

|------------------|--------------------------------|-------------------------|

|------------------|--------------------------------|-------------------------|

|------------------|--------------------------------|-------------------------|

 

Thats pretty much it I think....

Got any questions? email me:

!! LooX in tha BoX !!       

 

Scar tissue that I wish you saw

Sarcastic mister know it all

Close your eyes and I�ll kiss you �cause

With the birds I�ll share

With the birds I�ll share

This lonely view

With the birds I�ll share

This lonely view

 

Push me up against the wall

Young Kentucky girl in a push-up bra

Fallin� all over myself

To lick your heart and taste your health �cause

With the birds I�ll share

This lonely view...

 

Blood loss in a bathroom stall

Southern girl with a scarlet drawl

Wave good-bye to ma and pa �cause

With the birds I�ll share

With the birds I�ll share

This lonely view

With the birds I�ll share

This lonely view

 

Soft spoken with a broken jaw

Step outside but not to brawl

Autumn�s sweet we call it fall

I�ll make it to the moon if I have to crawl and

With the birds I�ll share

This lonely view...

 

Scar tissue that I wish you saw

Sarcastic mister know it all

Close your eyes and I�ll kiss you �cause

With the birds I�ll share

With the birds I�ll share

This lonely view

With the birds I�ll share

This lonely view...


Linkback: https://www.buyuknet.com/red-hot-chili-peppers-scar-tissue-tab-t29182.0.html

Etiket:
 

Bu bilgi size yardimci oldu mu?

EvetHayır
Red Hot Chili Peppers - Scar Tissue (Tab)
Red Hot Chili Peppers - Scar Tissue (Tab)
(Ortalama: 5 üzerinden 2.5 - 2 Oy)
2
Red Hot Chili Peppers - Scar Tissue (Tab)

Red Hot Chili Peppers - Scar Tissue (Tab) »Intro: