Red Hot Chili Peppers - Search And Destroy

Buyuknet15.10.2010 - 01:59 |
Intro/Main Riff:

             C#        B  C#      F#           C#

|-------------------------------|-------------------|

|-------------------------------|-7---7-7--7--------|

|------------6--- 6-6--4--6-6-- |-6---6-6--6---6-6--|

|------------6--- 6-6--4--6-6---|-4---4-4--4---6-6--| 

|-(4)------- 4 -- 4 4--2--4-4---|--------------4-4--|

|-------------------------------|-------------------|

 

 

Little lead #1:     

|----------------------------------|-----------|----------------------------------

|----------------------------------|-----------|----------------------------------

|------9--11-11b-(11)---9-11-9-----|-9h11p9----|-11b-9----9h11p9----------9-------

|--11--------------------------11--|-----------|---------11----------------(11)---

|----------------------------------|-----------|----------------------------------

|----------------------------------|-----------|----------------------------------

 

 

 

Little lead #2:

|-------------12-----14-Jam away on 12&14---------12--------|

|-14-14-12-14-----14----------------------------------------|

|-----------------------------------------------------------|

|-----------------------------------------------------------|

|-----------------------------------------------------------|

|-----------------------------------------------------------|

 

 

VERSE:

   C#             E        A              B

|---------------------- |--------------------------|

|---------------------- |--2-2--2-2--2-2-----------| 

|-6-6--6-6---6-6--9-----|--2-2--2-2--2-2--4--------| 

|-6-6--6-6---6-6--9-----|--2-2--2-2--2-2--4--------|

|-4-4--4-4---4-4--7-----|--0-0--0-0--0-0--2--------|

|---------------------- |--------------------------|

 

PRE-CHORUS: Power Chords

C#         B         A           B   

 

 

CHOURS: Play chords more than one time

       F#          A             E             G#

|---------------------------------------------------|

|---------------------------------------------------|

|------------------2-2------------------------------|

|--3-/-4-----------2-2------0-2--2-2-----------6-6--|

|--3-/-4------2-4--0-0--0-2------2-2------0-2--6-6--|

|--1-/-2--2-4--------------------0-0--0-2------4-4--|

 

 

Verse-Fill:         

|------------------|

|------------------|

|---4/6/4--4--6~~~-|

|------------------|

|------------------|

|------------------|

Linkback: https://www.buyuknet.com/red-hot-chili-peppers-search-and-destroy-t29181.0.html

Etiket:
 

Bu bilgi size yardimci oldu mu?

EvetHayır
Red Hot Chili Peppers - Search And Destroy
Red Hot Chili Peppers - Search And Destroy
(Ortalama: 5 üzerinden 2.5 - 2 Oy)
2
Red Hot Chili Peppers - Search And Destroy

Red Hot Chili Peppers - Search And Destroy »Intro/Main Riff:              C#        B  C#      F#           C# |-------------------------------|-------------------|