Red Hot Chili Peppers - She Looks To Me

Buyuknet15.10.2010 - 01:59 |
Intro (Clean electric)

E-----------------------------------------------------------------------14----------14-----------

B--10-------10----------14----------14----------12----------12-----------------------------------

G-----11----------11----------14----------14----------13----------13----------13----------13-----

D--------11----11----------14----14----14----14----14----14----14----14----14----14----14----14--

A------------------------------------------------------------------------------------------------

E------------------------------------------------------------------------------------------------

 

E------------------------------------------------------------------------------------------------

B--10-------10----------14----------14----------------12-----------------------------------------

G-----11----------11----------14----------14---------13------------------------------------------

D--------11----11----------14----14----14----14-----14-------------------------------------------

A------------------------------------------------------------------------------------------------

E------------------------------------------------------------------------------------------------

 

Verse (electric w/ slight tube overdrive)

E--0--------0-----0--0-----------------------------------------------------------0-----0--0------

B--0--------0-----0--0-------5-----5-----5--5-------3-----3-----3--3-------1-----1-----1--1------

G--2--------2-----2--2-------5-----5-----5--5-------4-----4-----4--4-------2-----2-----2--2------

D--2--------2-----2--2-------5-----5-----5--5-------5-----5-----5--5-------3-----3-----3--3------

A--0--------0-----0--0-------3-----3-----3--3-------5-----5-----5--5-------3-----3-----3--3------

E------------------------------------------------------------------------------------------------

 

 

Pre-chorus 1

____________________

|

E--0--------0-----0--0-----------------------------------------------------------0-----0--0------

B--0--------0-----0--0-------5-----5-----5--5-------3-----3--------3-------3-----3-----3--3------

G--2--------2-----2--2-------5-----5-----5--5-------4-----4--------4-------4-----4-----4--4------

D--2--------2-----2--2-------5-----5-----5--5-------5-----5--------5-------5-----5-----5--5------

A--0--------0-----0--0-------3-----3-----3--3-------5-----5--------5-------5-----5-----5--5------

E------------------------------------------------------------------------------------------------

| (electric clean w/ tremolo effect)

E------------------------------------------------------------------------------------------------

B---------------------------------------------------------------------12-------------------------

G---------------------------------------------------------------12-------------------------------

D---------------------------------------------------------12-------------------------------------

A---------------------------------------------------10-------------------------------------------

E------------------------------------------------------------------------------------------------

|___________________

 

 

Chorus

E------------------------------------------------------------------------------14-14-14-14-------

B--10-------10-------10------14----14-------14------12----12-------12----------12-12-12-12-------

G--11-------11-------11------14----14-------14------13----13-------13----------13-13-13-13-------

D--11-------11-------11------14----14-------14------14----14-------14----------------------------

A------------------------------------------------------------------------------------------------

E------------------------------------------------------------------------------------------------

 

E------------------------------------------------------------------------------14-14-14-14-------

B--10-------10-------10------14----14-------14------12----12-------12----------12-12-12-12-------

G--11-------11-------11------14----14-------14------13----13-------13----------13-13-13-13-------

D--11-------11-------11------14----14-------14------14----14-------14----------------------------

A------------------------------------------------------------------------------------------------

E------------------------------------------------------------------------------------------------

 

E------------------------------------------------------------------------------14-14-14-14-------

B--10-------10-------10------14----14-------14------12----12-------12----------12-12-12-12-------

G--11-------11-------11------14----14-------14------13----13-------13----------13-13-13-13-------

D--11-------11-------11------14----14-------14------14----14-------14----------------------------

A------------------------------------------------------------------------------------------------

E------------------------------------------------------------------------------------------------

 

E------------------------------------------------------------------------------------------------

B--10-------10-------10------14----14----------12------------------------------------------------

G--11-------11-------11------14----14----------13------------------------------------------------

D--11-------11-------11------14----14----------14------------------------------------------------

A------------------------------------------------------------------------------------------------

E------------------------------------------------------------------------------------------------

 

 

Chorus 2 with lead

__________________

|

E------------------------------------------------------------------------------14-14-14-14-------

B--10-------10-------10------14----14-------14------12----12-------12----------12-12-12-12-------

G--11-------11-------11------14----14-------14------13----13-------13----------13-13-13-13-------

D--11-------11-------11------14----14-------14------14----14-------14----------------------------

A------------------------------------------------------------------------------------------------

E------------------------------------------------------------------------------------------------

| (electric w/ dist)

E----------------------------------------------------------------------------14------------------

B--------------------------------------------------------------------17--------------------------

G------------------------------------------------------------16fb-------------------16rb-p14--16-

D------------------------------------------------------------------------------------------------

A------------------------------------------------------------------------------------------------

E------------------------------------------------------------------------------------------------

|_________________

 

__________________

|

E------------------------------------------------------------------------------14-14-14-14-------

B--10-------10-------10------14----14-------14------12----12-------12----------12-12-12-12-------

G--11-------11-------11------14----14-------14------13----13-------13----------13-13-13-13-------

D--11-------11-------11------14----14-------14------14----14-------14----------------------------

A------------------------------------------------------------------------------------------------

E------------------------------------------------------------------------------------------------

|

E------------------------------------------------------------------------------------------------

B------------------------------------------------------------------------------------------------

G--16p14----------------------------------------------------14--16--14--------------14--16--14---

D---------------------------------------------------14--16------------------14--16---------------

A------------------------------------------------------------------------------------------------

E------------------------------------------------------------------------------------------------

|_________________

 

__________________

|

E------------------------------------------------------------------------------14-14-14-14-------

B--10-------10-------10------14----14-------14------12----12-------12----------12-12-12-12-------

G--11-------11-------11------14----14-------14------13----13-------13----------13-13-13-13-------

D--11-------11-------11------14----14-------14------14----14-------14----------------------------

A------------------------------------------------------------------------------------------------

E------------------------------------------------------------------------------------------------

|

E--------------------------------------------------------------------14fb-r----------------------

B----------------------------------------------------------------------------17------------------

G----------------------------------------------------------------------------------16rb-p14--14--

D------------------------------------------------------------------------------------------------

A------------------------------------------------------------------------------------------------

E------------------------------------------------------------------------------------------------

|_________________

 

__________________

|

E------------------------------------------------------------------------------------------------

B--10-------10-------10------14----14-------14------12------12-----12--12----12--12----12--------

G--11-------11-------11------14----14-------14------13------13-----13--13----13--13----13--------

D--11-------11-------11------14----14-------14------14------14-----14--14----14--14----14--------

A------------------------------------------------------------------------------------------------

E------------------------------------------------------------------------------------------------

|

E------------------------------------------------------------------------------------------------

B------------------------------------------------------------------------------------------------

G--16p14-----------------------------------------------------------------------------------------

D------------------------------------------------------------------------------------------------

A------------------------------------------------------------------------------------------------

E------------------------------------------------------------------------------------------------

|_________________

 

 

Interlude

E---------------------------------------------------------------------------------------------

B---------------------------------------------------------------------------------------------

G--2----------2----------2-----2--2--2--2--2----5----------5----------5--5--5--5--5--5-—5--5--

D--2----------2----------2-----2--2--2--2--2----5----------5----------5--5--5--5--5--5--5--5--

A--0----------0----------0-----0--0--0--0--0----3----------3----------3--3--3--3--3--3--3--3--

E---------------------------------------------------------------------------------------------

 

E---------------------------------------------------------------------------------------------

B---------------------------------------------------------------------------------------------

G--10---------10---------10-10-10-10-10-10-9----10---------10---------10-10-10-10-12-12—12-12-

D--10---------10---------10-10-10-10-10-10-9----10---------10---------10-10-10-10-12-12-12-12-

A--8----------8----------8--8--8--8--8--8--7----8----------8----------8--8--8--8--10-10-10-10-

E---------------------------------------------------------------------------------------------

 

Solo

__________________

|

E--0--------0-----0--0-----------------------------------------------------------0-----0--0------

B--0--------0-----0--0-------5-----5-----5--5-------3-----3-----3--3-------1-----1-----1--1------

G--2--------2-----2--2-------5-----5-----5--5-------4-----4-----4--4-------2-----2-----2--2------

D--2--------2-----2--2-------5-----5-----5--5-------5-----5-----5--5-------3-----3-----3--3------

A--0--------0-----0--0-------3-----3-----3--3-------5-----5-----5--5-------3-----3-----3--3------

E------------------------------------------------------------------------------------------------

| (electric w/ dist)

E------------------------------------------------------------------------------------------------

B--5---------------------------------------------------------------------------------------------

G--7fb-------------------------------------------------------------------------------------------

D------------------------------------------------------------------------------------------------

A------------------------------------------------------------------------------------------------

E------------------------------------------------------------------------------------------------

|_________________

 

__________________

|

E--0--------0-----0--0-----------------------------------------------------------0-----0--0------

B--0--------0-----0--0-------5-----5-----5--5-------3-----3-----3--3-------1-----1-----1--1------

G--2--------2-----2--2-------5-----5-----5--5-------4-----4-----4--4-------2-----2-----2--2------

D--2--------2-----2--2-------5-----5-----5--5-------5-----5-----5--5-------3-----3-----3--3------

A--0--------0-----0--0-------3-----3-----3--3-------5-----5-----5--5-------3-----3-----3--3------

E------------------------------------------------------------------------------------------------

|

E------------------------------------------------------------------------------------------------

B--10--------------------------------------------------------------------------------------------

G--12fb------------------------------------------------------------------------------------------

D------------------------------------------------------------------------------------------------

A------------------------------------------------------------------------------------------------

E------------------------------------------------------------------------------------------------

|_________________

 

__________________

|

E--0--------0-----0--0-----------------------------------------------------------0-----0--0------

B--0--------0-----0--0-------5-----5-----5--5-------3-----3-----3--3-------1-----1-----1--1------

G--2--------2-----2--2-------5-----5-----5--5-------4-----4-----4--4-------2-----2-----2--2------

D--2--------2-----2--2-------5-----5-----5--5-------5-----5-----5--5-------3-----3-----3--3------

A--0--------0-----0--0-------3-----3-----3--3-------5-----5-----5--5-------3-----3-----3--3------

E------------------------------------------------------------------------------------------------

|

E--12--------------------------------------------------------------------------------------------

B--15fb------------------------------------------------------------------------------------------

G------------------------------------------------------------------------------------------------

D------------------------------------------------------------------------------------------------

A------------------------------------------------------------------------------------------------

E------------------------------------------------------------------------------------------------

|_________________

 

__________________

|

E--0--------0-----0--0-----------------------------------------------------------0-----0--0------

B--0--------0-----0--0-------5-----5-----5--5-------3-----3-----3--3-------1-----1-----1--1------

G--2--------2-----2--2-------5-----5-----5--5-------4-----4-----4--4-------2-----2-----2--2------

D--2--------2-----2--2-------5-----5-----5--5-------5-----5-----5--5-------3-----3-----3--3------

A--0--------0-----0--0-------3-----3-----3--3-------5-----5-----5--5-------3-----3-----3--3------

E------------------------------------------------------------------------------------------------

|

E--17--------------------------------------------------------------------------------------------

B--20fb------------------------------------------------------------------------------------------

G------------------------------------------------------------------------------------------------

D------------------------------------------------------------------------------------------------

A------------------------------------------------------------------------------------------------

E------------------------------------------------------------------------------------------------

|_________________

 

 

 

Pre-Chorus 2

____________________

|

E--0--------0-----0--0-----------------------------------------------------------0-----0--0------

B--0--------0-----0--0-------5-----5-----5--5-------3-----3--------3-------3-----3-----3--3------

G--2--------2-----2--2-------5-----5-----5--5-------4-----4--------4-------4-----4-----4--4------

D--2--------2-----2--2-------5-----5-----5--5-------5-----5--------5-------5-----5-----5--5------

A--0--------0-----0--0-------3-----3-----3--3-------5-----5--------5-------5-----5-----5--5------

E------------------------------------------------------------------------------------------------

| (electric clean w/ tremolo effect)

E---------------------------------------------------------------------19-------------------------

B---------------------------------------------------------------20-------------------------------

G---------------------------------------------------------19-------------------------------------

D---------------------------------------------------17-------------------------------------------

A------------------------------------------------------------------------------------------------

E------------------------------------------------------------------------------------------------

|___________________

 

Chorus 3

__________________

|

E------------------------------------------------------------------------------14-14-14-14-------

B--10-------10-------10------14----14-------14------12----12-------12----------12-12-12-12-------

G--11-------11-------11------14----14-------14------13----13-------13----------13-13-13-13-------

D--11-------11-------11------14----14-------14------14----14-------14----------------------------

A------------------------------------------------------------------------------------------------

E------------------------------------------------------------------------------------------------

| (electric w/ dist)

E------------------------------------------------------------------------------------------------

B-----------------------------------------------------------------------------17fb---17fb-r-p14--

G------------------------------------------------------------------------------------------------

D------------------------------------------------------------------------------------------------

A------------------------------------------------------------------------------------------------

E------------------------------------------------------------------------------------------------

|_________________

 

__________________

|

E------------------------------------------------------------------------------14-14-14-14-------

B--10-------10-------10------14----14-------14------12----12-------12----------12-12-12-12-------

G--11-------11-------11------14----14-------14------13----13-------13----------13-13-13-13-------

D--11-------11-------11------14----14-------14------14----14-------14----------------------------

A------------------------------------------------------------------------------------------------

E------------------------------------------------------------------------------------------------

|

E----------------------------------------------------------------------------14------------------

B--17fb--------------------------------------------------------------17--------------------------

G------------------------------------------------------------16fb-------------------16rb-p14--16-

D------------------------------------------------------------------------------------------------

A------------------------------------------------------------------------------------------------

E------------------------------------------------------------------------------------------------|_________________

 

__________________

|

E------------------------------------------------------------------------------14-14-14-14-------

B--10-------10-------10------14----14-------14------12----12-------12----------12-12-12-12-------

G--11-------11-------11------14----14-------14------13----13-------13----------13-13-13-13-------

D--11-------11-------11------14----14-------14------14----14-------14----------------------------

A------------------------------------------------------------------------------------------------

E------------------------------------------------------------------------------------------------

|

E------------------------------------------------------------------------------------------------

B------------------------------------------------------------------------------------------17----

G--14------------------------------------------------------------------------14--16--fb----------

D--------------------------------------------------------------------14--16----------------------

A------------------------------------------------------------------------------------------------

E------------------------------------------------------------------------------------------------

|_________________

 

__________________

|

E------------------------------------------------------------------------------------------------

B--10-------10-------10------14----14-------14------12------12-----12--12----12--12----12--------

G--11-------11-------11------14----14-------14------13------13-----13--13----13--13----13--------

D--11-------11-------11------14----14-------14------14------14-----14--14----14--14----14--------

A------------------------------------------------------------------------------------------------

E------------------------------------------------------------------------------------------------

|

E------------------------------------------------------------------------------------------------

B---------------------------------------17-------------------------------------------------------

G--16p14----------------------------16fb----16rb-------------------------------------------------

D------------------------------------------------------------------------------------------------

A------------------------------------------------------------------------------------------------

E------------------------------------------------------------------------------------------------

|_________________

 

Here the chorus modulates (changes aaa) to th*

__________________

|

E------------------------------------------------------------------------------16-16-16-16-------

B--12-------12-------12------16----16-------16------14----14-------14----------14-14-14-14-------

G--13-------13-------13------16----16-------16------15----15-------15----------15-15-15-15-------

D--13-------13-------13------16----16-------16------16----16-------16----------------------------

A------------------------------------------------------------------------------------------------

E------------------------------------------------------------------------------------------------

|

E----------------------------------------------------------------------------16------------------

B--------------------------------------------------------------------19--------------------------

G------------------------------------------------------------18fb-------------------18rb-p16--18-

D------------------------------------------------------------------------------------------------

A------------------------------------------------------------------------------------------------

E------------------------------------------------------------------------------------------------|_________________

 

__________________

|

E------------------------------------------------------------------------------16-16-16-16-------

B--12-------12-------12------16----16-------16------14----14-------14----------14-14-14-14-------

G--13-------13-------13------16----16-------16------15----15-------15----------15-15-15-15-------

D--13-------13-------13------16----16-------16------16----16-------16----------------------------

A------------------------------------------------------------------------------------------------

E------------------------------------------------------------------------------------------------

|

E------------------------------------------------------------------------------------------------

B------------------------------------------------------------------------------------------------

G--18p16---------------------------18fb----r-p16--18------------------------------15hb------r----

D------------------------------------------------------------------------------------------------

A------------------------------------------------------------------------------------------------

E------------------------------------------------------------------------------------------------

|_________________

 

__________________

|

E------------------------------------------------------------------------------16-16-16-16-------

B--12-------12-------12------16----16-------16------14----14-------14----------14-14-14-14-------

G--13-------13-------13------16----16-------16------15----15-------15----------15-15-15-15-------

D--13-------13-------13------16----16-------16------16----16-------16----------------------------

A------------------------------------------------------------------------------------------------

E------------------------------------------------------------------------------------------------

|

E------------------------------------------------------------------------------------------------

B------------------------------------------------------------------------------------------------

G--13--------------------------------------------------------------------------------------------

D---------------------------------------------------------------------------------------18--/18--

A------------------------------------------------------------------------------------------------

E------------------------------------------------------------------------------------------------

|_________________

 

__________________

|

E------------------------------------------------------------------------------16-16-16-16-------

B--12-------12-------12------16----16-------16------14----14-------14----------14-14-14-14-------

G--13-------13-------13------16----16-------16------15----15-------15----------15-15-15-15-------

D--13-------13-------13------16----16-------16------16----16-------16----------------------------

A------------------------------------------------------------------------------------------------

E------------------------------------------------------------------------------------------------

|

E------------------------------------------------------------------------------------------------

B------------------------------------------------------------------------------------------------

G--18p16---------------------------18fb----r-p16--18------------------------------15hb------r ---

D------------------------------------------------------------------------------------------------

A------------------------------------------------------------------------------------------------

E------------------------------------------------------------------------------------------------

|_________________

 

Outro part 1

__________________

|

E------------------------------------------------------------------------------16-16-16-16-------

B--12-------12-------12------16----16-------16------14----14-------14----------14-14-14-14-------

G--13-------13-------13------16----16-------16------15----15-------15----------15-15-15-15-------

D--13-------13-------13------16----16-------16------16----16-------16----------------------------

A------------------------------------------------------------------------------------------------

E------------------------------------------------------------------------------------------------

|

E------------------------------------------------------------------------------------------------

B------------------------------------------------------------------------------------------------

G------------------------------------------------------------------------------------------------

D--13-------13-------13-----/16----16-------16------------16-------16-----13--------------------

A------------------------------------------------------------------------------------------------

E------------------------------------------------------------------------------------------------

|

E------------------------------------------------------------------------------------------------

B------------------------------------------------------------------------------------------------

G--13-------13-------13-----/16----16-------16-----15----15-------15-----13--------------------

D------------------------------------------------------------------------------------------------

A------------------------------------------------------------------------------------------------

E------------------------------------------------------------------------------------------------

|

E------------------------------------------------------------------------------------------------

B--12-------12-------12-----/16-------------16-----14----14-------14-----11--------------------

G------------------------------------------------------------------------------------------------

D------------------------------------------------------------------------------------------------

A------------------------------------------------------------------------------------------------

E------------------------------------------------------------------------------------------------

|_________________

 

Outro part 2

__________________

|

E------------------------------------------------------------------------------------------------

B--12-------12-------12------16----16-------16------14-------------------------------------------

G--13-------13-------13------16----16-------16------15-------------------------------------------

D--13-------13-------13------16----16-------16------16-------------------------------------------

A------------------------------------------------------------------------------------------------

E------------------------------------------------------------------------------------------------

|

E------------------------------------------------------------------------------------------------

B------------------------------------------------------------------------------------------------

G------------------------------------------------------------------------------------------------

D--13-------13-------13-----/16----16-------16---------------------------------------------------

A------------------------------------------------------------------------------------------------

E------------------------------------------------------------------------------------------------

|

E------------------------------------------------------------------------------------------------

B------------------------------------------------------------------------------------------------

G--13-------13-------13-----/16----16-------16-----15-------------------------------------------

D------------------------------------------------------------------------------------------------

A------------------------------------------------------------------------------------------------

E------------------------------------------------------------------------------------------------

|

E------------------------------------------------------------------------------------------------

B--12-------12-------12-----/16-------------16-----14-------------------------------------------

G------------------------------------------------------------------------------------------------

D------------------------------------------------------------------------------------------------

A------------------------------------------------------------------------------------------------

E------------------------------------------------------------------------------------------------

|_________________

 

 

Arrangement

 

Intro

Verse (x5)

Pre-Chorus 1

Chorus

Verse (x3)

Pre-Chorus 1

Chorus 2

Interlude

Solo

Verse (x3)

Pre-Chorus 2

Chorus 3

Outro part 1 (x3)

Outro part 2

Linkback: https://www.buyuknet.com/red-hot-chili-peppers-she-looks-to-me-t29180.0.html

Etiket:
 

Bu bilgi size yardimci oldu mu?

EvetHayır
Red Hot Chili Peppers - She Looks To Me
Red Hot Chili Peppers - She Looks To Me
(Ortalama: 5 üzerinden 2.5 - 2 Oy)
2
Red Hot Chili Peppers - She Looks To Me

Red Hot Chili Peppers - She Looks To Me »Intro (Clean electric) E-----------------------------------------------------------------------14----------14-----------