Red Hot Chili Peppers - She's Only 18

Buyuknet15.10.2010 - 01:59 |
 Intro

(Bass)

e----------------|--------------|

B----------------|--------------|

G----------------|--------------|

D-x//-8////////--|-x-3-3-3-3-3--|

A-x//------------|--------------|

E----------------|--------------|

 

Verse

 

Riff A

 

e---------------------|----------------|

B---------------------|----------------|

G------3h5p3---3b-----|-----3h5p3---3--|

D-3h5--------5-----5--|-3h5-------5----|

A---------------------|----------------|

E---------------------|----------------| x4

 

Riff B

 

e---------------------------|-----------------------|

B-------11h13p11----11b-----|-------11h13p11----11--|

G-10h12----------12-----12--|-10h12----------12-----|

D---------------------------|-----------------------|

A---------------------------|-----------------------|

E---------------------------|-----------------------| x2

 

e---------------------|----------------|

B---------------------|----------------|

G------3h5p3---3b-----|-----3h5p3---3--|

D-3h5--------5-----5--|-3h5-------5----|

A---------------------|----------------|

E---------------------|----------------|

 

e-------------------|--------------|

B-------------------|--------------|

G-----3h5p3---3b----|-----3h5p3----|

D-3h5-------5----5--|-3p0-------5--|

A-------------------|--------------|

E-------------------|--------------|

 

Chorus

 

Gtr 1

Riff C

e--------------------------------------------------------------|

B--------------------------------------------------------------|

G-5-----5-----5-----5/8-----8-----8----------------10--10--10--|

D-5-----5-----5-----5/8-----8-----8--5-----5-----5/10--10--10--|

A-3-----3-----3-----3/6-----6-----6--5-----5-----5/8---8---8---|

E------------------------------------3-----3-----3/8---8---8---| x4

 

On the last time Gtr 2 comes in and plays:

 

e---------------------------------------------------------------|

B-8---8---8---8---8---8---8---8--7---7---7---7---7---7---7---7--|

G---------------------------------------------------------------|

D-8---8---8---8---8---8---8---8--7---7---7---7---7---7---7---7--|

A---------------------------------------------------------------|

E---------------------------------------------------------------|

 

Verse

 

Gtr 1

 

Riff A

 

Riff B

 

Chorus

 

Gtr 1

 

Riff C

 

Gtr 2 comes in and plays these fills:

 

e----------|

B----------|

G----------|

D----------|

A-----1-3--|

E-1h3------|

 

e-----------------|

B-----------------|

G-----------------|

D-3b-3bp1---------|

A---------3p1--3--|

E-----------------|

 

e--------------------------------|

B--------------------------------|

G------------------8-------------|

D------8----8--10----10--8--8/5--|

A-8h10---10----------------------|

E--------------------------------|

 

Guitar Solo

 

Gtr 1

 

Cm            Bb            F          Cm

 

Gtr 2

 

e-----------------------------|-------------------------------------|

B-----------------------------|-------------------------------------|

G-----------------------------|-------------------------------------|

D-----------------------------|--------------------8-10--8h10-------|

A-----6-8h10-6h8--6-8/-x-x-6--|-8h10--6h8--6--8h10------------8h10--|

E-6/8-------------------------|-------------------------------------|

 

e------------------------------------|---------------8-----------|

B------------------------------------|-8-11-11--8-11-------------|

G-------8b---------10/11--8h10p9h10--|-----------------10bp8-----|

D-8--10----10-8h10-------------------|----------------------10---|

A------------------------------------|---------------------------|

E------------------------------------|---------------------------|

 

e--------------------------------------------------------------|

B--------------------------------------------------------------|

G-8--10h12-8h10-10p8--8h10-8h10-8h10-8h10-10--10p8-10-10p8-10--|

D--------------------------------------------------------------|

A--------------------------------------------------------------|

E--------------------------------------------------------------|

 

e----------------------------------------------------|

B---------------------11----11-13-13b--13-13----18b--|

G-10p8-10--10p8-10/12----12------------------12------|

D----------------------------------------------------|

A----------------------------------------------------|

E----------------------------------------------------|

 

e----------------18--|------------------------------------|

B-18bp16-18--18b-----|-20p19p18p16-18-18-18p16----16-18b--|

G--------------------|-------------------------17---------|

D--------------------|------------------------------------|

A--------------------|------------------------------------|

E--------------------|------------------------------------|

 

e-18-------------------------|

B----18bp16--18-18-18p16-----|

G------------------------17--|

D----------------------------|

A----------------------------|

E----------------------------|

 

Chorus

 

Gtr 1

 

Riff C

 

Gtr 2

 

e--------------------------------------------------------------|

B-13--13--13--13--13--13--13--13--13--13--13--13--13--13--13---|

G-15b-15b-15b-15b-15b-15b-15b-15b-15b-15b-15b-15b-15b-15b-15b--|

D--------------------------------------------------------------|

A--------------------------------------------------------------|

E--------------------------------------------------------------|

 

Gtr 3 comes in and plays these fills:

 

e------------|

B-13br-------|

G------------|

D------------|

A------------|

E------------|

 

e-18--18--18---------|

B-18b-18b-18b--------|

G-------------17-15--|

D--------------------|

A--------------------|

E--------------------|

 

e------------|

B------------|

G-17--17br/--|

D------------|

A------------|

E------------|

 

e-15h18p15----15h18p15----15h18p15----15h18p15--|

B-----------------------------------------------|

G-----------------------------------------------|

D-----------------------------------------------|

A---------18----------18----------18------------|

E-----------------------------------------------|

 

e-18b-------18b-20b-20b-20b-20b-20b-20b-20b-20b-20b--8h9p8p6--|

B-------------------------------------------------------------|

G-------------------------------------------------------------|

D-------------------------------------------------------------|

A-------------------------------------------------------------|

E-------------------------------------------------------------|

Linkback: https://www.buyuknet.com/red-hot-chili-peppers-shes-only-18-t29179.0.html

Etiket:
 

Bu bilgi size yardimci oldu mu?

EvetHayır
Red Hot Chili Peppers - She's Only 18
Red Hot Chili Peppers - She's Only 18
(Ortalama: 5 üzerinden 2.5 - 2 Oy)
2
Red Hot Chili Peppers - She's Only 18

Red Hot Chili Peppers - She's Only 18 » Intro (Bass) e----------------|--------------| B----------------|--------------| G----------------|--------------|