Red Hot Chili Peppers - Soul To Squeeze

Buyuknet15.10.2010 - 01:59 |
Intro:

e:----------------------------------|

B:----------------------------------|

G:------2-----4b54p2-------------2--|

D:---2----------------------2h4-----|

A:0--------0----------0--0----------|

E:----------------------------------|

 

 

 

e:-----------------------------------------|

B:------------------------------5----------|

G:-------2-----------2-----4/6-----64--2--|

D:----2--------2---------------------------|

A:-0--------0-----0-----0------------------|

E:-----------------------------------------|

 

 

 

e:-----------------------------------|--------------------------------|

B:-----------------------------------|--------------------------------|

G:--------2-----4b5p2-------------2--|--------2-----------------------|

D:-----2---------------------2h4-----|-----2--------2-----2-----0-----|

A:--0--------0---------0--0----------|--0--------0-----0--------------|

E:-----------------------------------|-----------------------3-----3--|

 

 

 

e:-----------------------------------|

B:-----------------------------------|

G:--------2-----4b5p2-------------2--|

D:-----2---------------------2h4-----|

A:--0--------0---------0--0----------|

E:-----------------------------------|

 

 

 

e:----------------------------------------|

B:-------------------------------5--------|

G:--------2-----------------4/6-----6p4p2-|

D:-----2--------2-----2-------------------|

A:--0--------0-----0-----0----------------|

E:----------------------------------------|

 

 

 

e:----------------------------------|

B:----------------------------------|

G:--------2-----4b5p2-------------2-|

D:-----2---------------------2h4----|e:---------------------------|--------------------------------|

B:---8/10------8/10----------|---13/15------1513-------------|

G:---------------------------|----------------------------14--|

D:---------------------------|--------------------------------|

A:---------------------------|--------------------------------|

E:---------------------------|--------------------------------|

 

 

 

e:-----------------|----------------|--------------|-----------------|

B:-------13--------|----------------|-----------13-|-----------13/15-|

G:-----------14----|-10-------------|--12/14-------|--14-------------|

D:-----------------|----------------|--------------|-----------------|

A:-----------------|----------------|--------------|-----------------|

E:-----------------|----------------|--------------|-----------------|

 

 

 

e:-------------------------|-----------------|

B:--------13/15---------13-|-----------------|

G:-------------------------|--------------14-|

D:-------------------------|-----------------|

A:-------------------------|-----------------|

E:-------------------------|-----------------|

 

 

 

e:------------8/108---------|------------------|

B:---------------|-----------|--------------10--|

G:---------------|-----------|------------------|

D:---------------|-----------|------------------|

A:---------------|-----------|------------------|

E:---------------|-----------|------------------|

 

 

 

e:------------------|--------------|

B:--------13---10/1110----6-------|

G:------------------|--------------|

D:------------------|--------------|

A:------------------|--------------|

E:------------------|--------------|

 

 

 

e:-------------------|----|-----------8--------|------------------|

B:-108--6--8/10--6~-|----|-/10-10-10----108--|-----6---------6--|

G:-------------------|----|--------------------|--------/7--------|

D:-------------------|----|--------------------|------------------|

A:-------------------|----|--------------------|------------------|

E:-------------------|----|--------------------|------------------|

 

 

 

e:----------------------|--------|--------------/108----------|------------|

B:-/10--8--6--8--10-6/8-|-6-----|-/10--10--10----------10--10-|-8-6-5---|

G:----------------------|-----7--|-----------------------------|------------|

D:----------------------|--------|-----------------------------|------------|

A:----------------------|--------|-----------------------------|------------|

E:----------------------|--------|-----------------------------|------------|

 

 

 

e:--/10------|----108----5----|---/108---------|--(8)--|---------------|

B:-----------|-----------------|-----------------|-------|-------13/15--|

G:-----------|-----------------|-----------------|-------|---------------|

D:-----------|-----------------|-----------------|-------|---------------|

A:-----------|-----------------|-----------------|-------|---------------|

E:-----------|-----------------|-----------------|-------|---------------|

 

 

 

e:----------------------|

B:-13-----1510---105--|

G:----------------------|

D:----------------------|

A:----------------------|

E:----------------------|

 

 

 

 

e:---------13/15-|----------13-|------------------------|------------------|

B:---------------|-------------|--15-------13/15--------|----10/11---------|

G:---------------|-------------|------------------1514-|-------------12---|

D:---------------|-------------|------------------------|------------------|

A:---------------|-------------|------------------------|------------------|

E:---------------|-------------|------------------------|------------------|

 

 

 

e:----------------|--------------------------|---------|-------|

B:----------------|---------/10--------------|---------|-------|

G:--10------------|-----------------------10-|---(10)--|-------|

D:----------------|--------------------------|---------|-------|

A:----------------|--------------------------|---------|-------|

E:----------------|--------------------------|---------|-------|

 

 

e:--------------|---------------|------------|-------------------|

B:--/10---------|---------86---|-6----------|--------------6/7-|

G:--------------|---------------|------------|--5/7--------------|

D:--------------|---------------|------------|-------------------|

A:--------------|---------------|------------|-------------------|

E:--------------|---------------|------------|-------------------|

 

 

 

e:--------------------|---------------|-------------------------|

B:-6-----------11/13-|--1110--------|--1110---------10/15----|

G:--------------------|---------------|-------------------------|

D:--------------------|---------------|-------------------------|

A:--------------------|---------------|-------------------------|

E:--------------------|---------------|-------------------------|

 

 

 

e:------------------|------------------|--------------|---------------------|

B:--15------15------|----------13------|-/10----------|----------10---------|

G:------------------|--/14---------14--|----------10--|---9/10--------10----|

D:------------------|------------------|--------------|---------------------|

A:------------------|------------------|--------------|---------------------|

E:------------------|------------------|--------------|---------------------|

 

 

 

e:-------------------|-------------------|---------|

B:----------8--6----|--------10---------|---------|

G:--9/10-------------|--9/10-------10----|--(10)---|

D:-------------------|-------------------|---------|

A:-------------------|-------------------|---------|

E:-------------------|-------------------|---------|

 

A:--0--------0---------0--0---------|

Linkback: https://www.buyuknet.com/red-hot-chili-peppers-soul-to-squeeze-t29175.0.html

Etiket:
 

Bu bilgi size yardimci oldu mu?

EvetHayır
Red Hot Chili Peppers - Soul To Squeeze
Red Hot Chili Peppers - Soul To Squeeze
(Ortalama: 5 üzerinden 2.5 - 2 Oy)
2
Red Hot Chili Peppers - Soul To Squeeze

Red Hot Chili Peppers - Soul To Squeeze »Intro: e:----------------------------------| B:----------------------------------| G:------2-----4b54p2-------------2--|