Red Hot Chili Peppers - Strip My Mind

Buyuknet15.10.2010 - 01:59 |
Band: Red Hot Chili Peppers

Song: Strip My Mind

Album: Stadium Arcadium disc 1 ('Jupiter')

Fig. 1 (Intro)

   Am                        Em                        F                         C

E--0-------------------------0-------------------------1-------------------------0-------------------------

B--1-------------------------0-------------------------1-------------------------1-------------------------

G--2-------------------------0-------------------------2-------------------------0-------------------------

D--2-------------------------2-------------------------3-------------------------2-------------------------

A--0-------------------------2-------------------------3-------------------------3-------------------------

E----------------------------0-----------------------------------------------------------------------------

   D                         Am                        C                         G

E--1-------------------------0-------------------------0-------------------------3-------------------------

B--3-------------------------1-------------------------1-------------------------3-------------------------

G--2-------------------------2-------------------------0-------------------------0-------------------------

D--0-------------------------2-------------------------2-------------------------0-------------------------

A----------------------------0-------------------------3-------------------------2-------------------------

E--------------------------------------------------------------------------------3-------------------------

 

E------------------------------------------------------

B------------------------------------------------------

G------------------------------------------------------

D------------------------------------------------------

A------------------------------------------------------

E------------------------------------------------------

 

 

Fig. 2 (Verse)

E--0-------------------------0-------------------------1-------------------------0-------------------------

B--1-------------------------0-------------------------1-------------------------1-------------------------

G--2-------------------------0-------------------------2-------------------------0-------------------------

D--2-------------------------2-------------------------3-------------------------2-------------------------

A--0-------------------------2-------------------------3-------------------------3-------------------------

E----------------------------0-----------------------------------------------------------------------------

 

E--1-------------------------0-------------------------0-------------------------3-------------------------

B--3-------------------------1-------------------------1-------------------------3-------------------------

G--2-------------------------2-------------------------0-------------------------0-------------------------

D--0-------------------------2-------------------------2-------------------------0-------------------------

A----------------------------0-------------------------3-------------------------2-------------------------

E--------------------------------------------------------------------------------3-------------------------

 

Fig. 3 (verse)

E--0-------------------------0-------------------------1-------------------------0-------------------------

B--1-------------------------0-------------------------1-------------------------1-------------------------

G--2-------------------------0-------------------------2-------------------------0-------------------------

D--2-------------------------2-------------------------3-------------------------2-------------------------

A--0-------------------------2-------------------------3-------------------------3-------------------------

E----------------------------0-----------------------------------------------------------------------------

 

E--1-------------------------0-------------------------0------------------------3----------3-------3-------

B--3-------------------------1-------------------------1------------------------3----------3-------3-------

G--2-------------------------2-------------------------0------------------------0----------0-------0-------

D--0-------------------------2-------------------------2------------------------0----------0-------0-------

A----------------------------0-------------------------3------------------------2----------2-------2-------

E-------------------------------------------------------------------------------3----------3-------3-------

 

 

Fig. 4 (Bridge)

E----------------0-----0-----0-------------------------0-------------0----0----0---------0-----------------

B----------------1-----1-----1-------------------------1-------------1----1----1---------1-----------------

G----------------2-----2-----2-------------------------0-------------0----0----0---------0-----------------

D----------------3-----------3-------------------------2-------------2----2----2---------2-----------------

A----------------3-----------3-------------------------3-------------3----3----3---------3-----------------

E----------------------------------------------------------------------------------------------------------

 

E--0------------0------------0----0--------0--------

B--1------------1------------1----1--------1--------

G--2------------2------------2----2--------2--------

D--3------------3------------3----3--------3--------

A--3------------3------------3----3--------3--------

E---------------------------------------------------

 

 

Fig. 5 (chorus 1)

______________________________

|   

E--5------------5------------3-----3------------0------------0----0--------0---0-----0---0-----0-----------

B--5------------5------------3-----3------------1------------1----1--------1---1-----1---1-----1-----------

G--5------------5------------4-----4------------2------------2----2--------2---2-----2---2-----2-----------

D--7------------7------------5-----5------------3------------3----3--------3---3-----3---3-----3-----------

A--7------------7------------5-----5------------3------------3----3--------3---3-----3---3-----3-----------

E--5------------5------------3-----3------------1------------1----1--------1---1-----1---1-----1-----------

| (w/ Tremelo effect)

E----------------------------------------------------------------------------------------------------------

B----------------------------------------------------------------------------------------------------------

G---------------17-----------16---19------------17---------------------------------------------------------

D--19------------------------------------------------------------------------------------------------------

A----------------------------------------------------------------------------------------------------------

E----------------------------------------------------------------------------------------------------------

|______________________________

______________________________

|   

E--5------------5------------3-----3------------0------------0----0--------0---0-----0---0-----0-----------

B--5------------5------------3-----3------------1------------1----1--------1---1-----1---1-----1-----------

G--5------------5------------4-----4------------2------------2----2--------2---2-----2---2-----2-----------

D--7------------7------------5-----5------------3------------3----3--------3---3-----3---3-----3-----------

A--7------------7------------5-----5------------3------------3----3--------3---3-----3---3-----3-----------

E--5------------5------------3-----3------------1------------1----1--------1---1-----1---1-----1-----------

|

E----------------------------------------------------------------------------------------------------------

B----------------------------------20-----------17---------------------------------------------------------

G---------------17-----------16----------------------------------------------------------------------------

D--19------------------------------------------------------------------------------------------------------

A----------------------------------------------------------------------------------------------------------

E----------------------------------------------------------------------------------------------------------

|______________________________

______________________________

|   

E--5------------5------------3-----3------------1----------------------------------------------------------

B--5------------5------------3-----3------------1----------------------------------------------------------

G--5------------5------------0-----0------------2----------------------------------------------------------

D--7------------7------------0-----0------------3----------------------------------------------------------

A--7------------7------------2-----2------------3----------------------------------------------------------

E--5------------5------------3-----3------------1----------------------------------------------------------

|

E----------------------------------------------------------------------------------------------------------

B----------------------------20-----------------17---------------------------------------------------------

G--17------------------------------------------------------------------------------------------------------

D----------------------------------------------------------------------------------------------------------

A----------------------------------------------------------------------------------------------------------

E----------------------------------------------------------------------------------------------------------

|______________________________

 

 

Fig. 6 (Lead part 1)

____________________________

| With dist. And Wah Wah

E-----------------15---------------------------------------------------------------------------------------

B--12h13----------------------12----------15---15fb---r---13----------8h10---8----------10-----------------

G--------------------------------------------------------------------------------------------9\7--p5-------

D----------------------------------------------------------------------------------------------------------

A----------------------------------------------------------------------------------------------------------

E----------------------------------------------------------------------------------------------------------

|

E--10h12----------15----------------------15---15fb---r---12-----------------------------------------------

B-----------------------------12--------------------------------------13h15--13---------15-----------------

G--------------------------------------------------------------------------------------------14\12---9-----

D----------------------------------------------------------------------------------------------------------

A----------------------------------------------------------------------------------------------------------

E----------------------------------------------------------------------------------------------------------

|____________________________

_____________________________

|

E----------------------------------------------------------------------------------------------------------

B----------------------------------------------------------------------------------------------------------

G--------------5---7fb---7fb--r--p5---------------------5---7fb-----------------------r--------------------

D--7------7------------------------------7-------5---7-----------------------------------------------------

A----------------------------------------------------------------------------------------------------------

E----------------------------------------------------------------------------------------------------------

|

E----------------------------------------------------------------------------------------------------------

B--------------8---10fb--10fb-r--p8---------------------8---12hb-----------ohb--------r--------------------

G--7------9------------------------------9-------7---9-----------------------------------------------------

D----------------------------------------------------------------------------------------------------------

A----------------------------------------------------------------------------------------------------------

E----------------------------------------------------------------------------------------------------------

|______________________________

 

Fig. 7

(Reversed)

E----------------------------------------------------------------------------------------------------------

B----------------------------------------------------------------------------------------------------------

G----------------------------------------------------------------------------------------------------------

D--7-------------\-----------------------------------------------------------------------------------------

A----------------------------------------------------------------------------------------------------------

E----------------------------------------------------------------------------------------------------------

 

 

Fig. 8 (Lead part 2)

____________________________

| With dist. And Wah Wah

E-----------------15---------------------------------------------------------------------------------------

B--12h13----------------------12----------15---15fb---r---13----------8h10---8----------10-----------------

G--------------------------------------------------------------------------------------------9\7--p5-------

D----------------------------------------------------------------------------------------------------------

A----------------------------------------------------------------------------------------------------------

E----------------------------------------------------------------------------------------------------------

|

E--10h12----------15----------------------15---15fb---r---12-----------------------------------------------

B-----------------------------12--------------------------------------13h15--13---------15-----------------

G--------------------------------------------------------------------------------------------14\12---9-----

D----------------------------------------------------------------------------------------------------------

A----------------------------------------------------------------------------------------------------------

E----------------------------------------------------------------------------------------------------------

|____________________________

_____________________________

|

E----------------------------------------------------------------------------------------------------------

B----------------------------------------------------------------------------------------------------------

G--------------5---7fb---7fb--r--p5---------------------5---9------------------------7---------------------

D--7------7------------------------------7-------5---7-----------------------------------------------------

A----------------------------------------------------------------------------------------------------------

E----------------------------------------------------------------------------------------------------------

|

E----------------------------------------------------------------------------------------------------------

B--------------8---10fb--10fb-r--p8---------------------8---13-----------------------12--------------------

G--7------9------------------------------9-------7---9-----------------------------------------------------

D----------------------------------------------------------------------------------------------------------

A----------------------------------------------------------------------------------------------------------

E----------------------------------------------------------------------------------------------------------

|______________________________

 

 

Fig. 9 Bridge 2

_______________________________

|

E--0-------------0-----0-----0-----------0-------------0-------------0----0----0---------0-----------------

B--1-------------1-----1-----1-----------1-------------1-------------1----1----1---------1-----------------

G--2-------------2-----2-----2-----------2-------------0-------------0----0----0---------0-----------------

D--3-------------3-----------3-----------3-------------2-------------2----2----2---------2-----------------

A--3-------------3-----------3-----------3-------------3-------------3----3----3---------3-----------------

E----------------------------------------------------------------------------------------------------------

|

E----------------------------------------------------------------------------------------------------------

B----------------------------------------------------------------------------------------------------------

G--5-------------------------------------------------------------------------------------------------------

D----------------------------------------------------------------------------------------------------------

A----------------------------------------------------------------------------------------------------------

E----------------------------------------------------------------------------------------------------------

|

E----------------------------------------------------------------------------------------------------------

B--10------------------------------------------------------------------------------------------------------

G----------------------------------------------------------------------------------------------------------

D----------------------------------------------------------------------------------------------------------

A----------------------------------------------------------------------------------------------------------

E----------------------------------------------------------------------------------------------------------

|_______________________________

 

E--0------------0------------0----0--------0--------

B--1------------1------------1----1--------1--------

G--2------------2------------2----2--------2--------

D--3------------3------------3----3--------3--------

A--3------------3------------3----3--------3--------

E---------------------------------------------------

 

 

Fig. 10 (Chorus 2)

______________________________

|   

E--5------------5------------3-----3------------0------------0----0--------0---0-----0---0-----0-----------

B--5------------5------------3-----3------------1------------1----1--------1---1-----1---1-----1-----------

G--5------------5------------4-----4------------2------------2----2--------2---2-----2---2-----2-----------

D--7------------7------------5-----5------------3------------3----3--------3---3-----3---3-----3-----------

A--7------------7------------5-----5------------3------------3----3--------3---3-----3---3-----3-----------

E--5------------5------------3-----3------------1------------1----1--------1---1-----1---1-----1-----------

| (w/ Tremelo effect)

E----------------------------------------------------------------------------------------------------------

B----------------------------------------------------------------------------------------------------------

G---------------17-----------16---19------------17---------------------------------------------------------

D--19------------------------------------------------------------------------------------------------------

A----------------------------------------------------------------------------------------------------------

E----------------------------------------------------------------------------------------------------------

|  With dist. And Wah Wah

E----------------------------------------------------------------------------------------------------------

B--12h13--------12-----------13---12---------12h13---------------------------------------------------------

G----------------------------------------------------------------------------------------------------------

D----------------------------------------------------------------------------------------------------------

A----------------------------------------------------------------------------------------------------------

E----------------------------------------------------------------------------------------------------------

|

E----------------------------------------------------------------------------------------------------------

B----------------------------------------------------------------------------------------------------------

G--12h14--------12-----------14---12---------12h14---------------------------------------------------------

D----------------------------------------------------------------------------------------------------------

A----------------------------------------------------------------------------------------------------------

E----------------------------------------------------------------------------------------------------------

|______________________________

______________________________

|   

E--5------------5------------3-----3------------0------------0----0--------0---0-----0---0-----0-----------

B--5------------5------------3-----3------------1------------1----1--------1---1-----1---1-----1-----------

G--5------------5------------4-----4------------2------------2----2--------2---2-----2---2-----2-----------

D--7------------7------------5-----5------------3------------3----3--------3---3-----3---3-----3-----------

A--7------------7------------5-----5------------3------------3----3--------3---3-----3---3-----3-----------

E--5------------5------------3-----3------------1------------1----1--------1---1-----1---1-----1-----------

|

E----------------------------------------------------------------------------------------------------------

B----------------------------------20-----------17---------------------------------------------------------

G---------------17-----------16----------------------------------------------------------------------------

D--19------------------------------------------------------------------------------------------------------

A----------------------------------------------------------------------------------------------------------

E----------------------------------------------------------------------------------------------------------



E----------------------------------------------------------------------------------------------------------

B--12h13--------12-----------13----12--------12h13---------------------------------------------------------

G----------------------------------------------------------------------------------------------------------

D----------------------------------------------------------------------------------------------------------

A----------------------------------------------------------------------------------------------------------

E----------------------------------------------------------------------------------------------------------

|

E----------------------------------------------------------------------------------------------------------

B----------------------------------------------------------------------------------------------------------

G--12h14--------12-----------14----12--------12h14---------------------------------------------------------

D----------------------------------------------------------------------------------------------------------

A----------------------------------------------------------------------------------------------------------

E----------------------------------------------------------------------------------------------------------

|______________________________

______________________________

|   

E--5------------5------------3-----3------------1------------------------------------------------------------

B--5------------5------------3-----3------------1------------------------------------------------------------

G--5------------5------------0-----0------------2------------------------------------------------------------

D--7------------7------------0-----0------------3------------------------------------------------------------

A--7------------7------------2-----2------------3------------------------------------------------------------

E--5------------5------------3-----3------------1------------------------------------------------------------

|

E------------------------------------------------------------------------------------------------------------

B----------------------------20-----------------17-----------------------------------------------------------

G--17--------------------------------------------------------------------------------------------------------

D------------------------------------------------------------------------------------------------------------

A------------------------------------------------------------------------------------------------------------

E------------------------------------------------------------------------------------------------------------



E------------------------------------------------------------------------------------------------------------

B--12h13--------12-----------13fb--12--------12h13-----------------------------------------------------------

G------------------------------------------------------------------------------------------------------------

D------------------------------------------------------------------------------------------------------------

A------------------------------------------------------------------------------------------------------------

E------------------------------------------------------------------------------------------------------------

|

E------------------------------------------------------------------------------------------------------------

B------------------------------------------------------------------------------------------------------------

G--12h14--------12-----------14----12--------12h14-----------------------------------------------------------

D------------------------------------------------------------------------------------------------------------

A------------------------------------------------------------------------------------------------------------

E------------------------------------------------------------------------------------------------------------

|______________________________

 

 

Fig. 11 (solo)

With dist.

E------------------------------------------------------------------------------------------------------------

B--5---------------------------------------------------------------------------------------------------------

G--7fb----------------------------------------------------------------------------7fb----r----5---5------5---

D------------------------------------------------------------------------------------------------------------

A------------------------------------------------------------------------------------------------------------

E------------------------------------------------------------------------------------------------------------

 

E------------------------------------------------------------------------------------------------------------

B------------------------------------------------------------------------------------------------------------

G-------5h7-----7fb----7rb----p5--------5h7-----7fb----7rb----p5--------7fb------------r---------------------

D--7--------------------------------7-------------------------------7----------------------------------------

A------------------------------------------------------------------------------------------------------------

E------------------------------------------------------------------------------------------------------------

 

E--12-----------------12---15----15fb--r---12--12-----15-------hb------------------------------x-------------

B--15fb-------------------------------------------------------------15fb-----r---13---13------x----13--------

G------------------------------------------------------------------------------------------------------------

D------------------------------------------------------------------------------------------------------------

A------------------------------------------------------------------------------------------------------------

E------------------------------------------------------------------------------------------------------------

 

E------------------------------------------------------------------------------------------------------------

B-------13h15---15fb---15rb--p13--------13h15---15fb---15rb---p13-------15fb---------ohb---r-----------------

G--14------------------------------14-------------------------------14---------------------------------------

D------------------------------------------------------------------------------------------------------------

A------------------------------------------------------------------------------------------------------------

E------------------------------------------------------------------------------------------------------------

 

 

Fig. 12 (verse 2)

E--0----------0-------0-------0--0-------0------------1----------1-------1-------0--0-------0------------

B--1----------1-------1-------0--0-------0------------1----------1-------1-------1--1-------1------------

G--2----------2-------2-------0--0-------0------------2----------2-------2-------0--0-------0------------

D--2----------2-------2-------2--2-------2------------3----------3-------3-------2--2-------2------------

A--0----------0-------0-------2--2-------2------------3----------3-------3-------3--3-------3------------

E-----------------------------0--0-------0---------------------------------------------------------------

 

E--1----------1-------1-------0--0-------0------------0----------0-------0-------3--3-------3------------

B--3----------3-------3-------1--1-------1------------1----------1-------1-------3--3-------3------------

G--2----------2-------2-------2--2-------2------------0----------0-------0-------0--0-------0------------

D--0----------0-------0-------2--2-------2------------2----------2-------2-------0--0-------0------------

A-----------------------------0--0-------0------------3----------3-------3-------2--2-------2------------

E--------------------------------------------------------------------------------3--3-------3------------

 

 

Fig. 13 (Bridge 3)

________________________

|

E--0-------------0-----0-----0-----------0-------------0-------------0----0----0---------0---------------

B--1-------------1-----1-----1-----------1-------------1-------------1----1----1---------1---------------

G--2-------------2-----2-----2-----------2-------------0-------------0----0----0---------0---------------

D--3-------------3-----------3-----------3-------------2-------------2----2----2---------2---------------

A--3-------------3-----------3-----------3-------------3-------------3----3----3---------3---------------

E--------------------------------------------------------------------------------------------------------

|

E--------------------------------------------------------------------------------------------------------

B--15h17----------------------------------------------\12------------------------------------------------

G--------------------------------------------------------------------------------------------------------

D--------------------------------------------------------------------------------------------------------

A--------------------------------------------------------------------------------------------------------

E--------------------------------------------------------------------------------------------------------

|

E--------------------------------------------------------------------------------------------------------

B--------------------------------------------------------------------------------------------------------

G--16h17----------------------------------------------\16------------------------------------------------

D--------------------------------------------------------------------------------------------------------

A--------------------------------------------------------------------------------------------------------

E--------------------------------------------------------------------------------------------------------

|________________________

_______________________

|

E--0------------0------------0----0--------0--------

B--1------------1------------1----1--------1--------

G--2------------2------------2----2--------2--------

D--3------------3------------3----3--------3--------

A--3------------3------------3----3--------3--------

E---------------------------------------------------

|

E---------------------------------------------------

B--15h17--------------------------------------------

G---------------------------------------------------

D---------------------------------------------------

A---------------------------------------------------

E---------------------------------------------------

|

E---------------------------------------------------

B---------------------------------------------------

G--16h17--------------------------------------------

D---------------------------------------------------

A---------------------------------------------------

E---------------------------------------------------

|_______________________

 

 

Fig. 14 (chorus 3)

______________________________

|   

E--5------------5------------3-----3------------0------------0----0--------0---0-----0---0-----0-----------

B--5------------5------------3-----3------------1------------1----1--------1---1-----1---1-----1-----------

G--5------------5------------4-----4------------2------------2----2--------2---2-----2---2-----2-----------

D--7------------7------------5-----5------------3------------3----3--------3---3-----3---3-----3-----------

A--7------------7------------5-----5------------3------------3----3--------3---3-----3---3-----3-----------

E--5------------5------------3-----3------------1------------1----1--------1---1-----1---1-----1-----------

| (w/ Tremelo effect)

E----------------------------------------------------------------------------------------------------------

B----------------------------------------------------------------------------------------------------------

G---------------17-----------16---19------------17---------------------------------------------------------

D--19------------------------------------------------------------------------------------------------------

A----------------------------------------------------------------------------------------------------------

E----------------------------------------------------------------------------------------------------------

|  With dist. And Wah Wah

E----------------------------------------------------------------------------------------------------------

B--12h13--------12-----------13---12---------12h13---------------------------------------------------------

G----------------------------------------------------------------------------------------------------------

D----------------------------------------------------------------------------------------------------------

A----------------------------------------------------------------------------------------------------------

E----------------------------------------------------------------------------------------------------------

|

E----------------------------------------------------------------------------------------------------------

B----------------------------------------------------------------------------------------------------------

G--12h14--------12-----------14---12---------12h14---------------------------------------------------------

D----------------------------------------------------------------------------------------------------------

A----------------------------------------------------------------------------------------------------------

E----------------------------------------------------------------------------------------------------------

|______________________________

 

______________________________

|   

E--5------------5------------3-----3------------0------------0----0--------0---0-----0---0-----0-----------

B--5------------5------------3-----3------------1------------1----1--------1---1-----1---1-----1-----------

G--5------------5------------4-----4------------2------------2----2--------2---2-----2---2-----2-----------

D--7------------7------------5-----5------------3------------3----3--------3---3-----3---3-----3-----------

A--7------------7------------5-----5------------3------------3----3--------3---3-----3---3-----3-----------

E--5------------5------------3-----3------------1------------1----1--------1---1-----1---1-----1-----------

|

E----------------------------------------------------------------------------------------------------------

B----------------------------------20-----------17---------------------------------------------------------

G---------------17-----------16----------------------------------------------------------------------------

D--19------------------------------------------------------------------------------------------------------

A----------------------------------------------------------------------------------------------------------

E----------------------------------------------------------------------------------------------------------



E----------------------------------------------------------------------------------------------------------

B--12h13--------12-----------13----12--------12h13---------------------------------------------------------

G----------------------------------------------------------------------------------------------------------

D----------------------------------------------------------------------------------------------------------

A----------------------------------------------------------------------------------------------------------

E----------------------------------------------------------------------------------------------------------

|

E----------------------------------------------------------------------------------------------------------

B----------------------------------------------------------------------------------------------------------

G--12h14--------12-----------14----12--------12h14---------------------------------------------------------

D----------------------------------------------------------------------------------------------------------

A----------------------------------------------------------------------------------------------------------

E----------------------------------------------------------------------------------------------------------

|______________________________

 

______________________________

|   

E--5------------5------------3-----3------------0------------0----0--------0---0-----0---0-----0-----------

B--5------------5------------3-----3------------1------------1----1--------1---1-----1---1-----1-----------

G--5------------5------------4-----4------------2------------2----2--------2---2-----2---2-----2-----------

D--7------------7------------5-----5------------3------------3----3--------3---3-----3---3-----3-----------

A--7------------7------------5-----5------------3------------3----3--------3---3-----3---3-----3-----------

E--5------------5------------3-----3------------1------------1----1--------1---1-----1---1-----1-----------

|

E------------------------------------------------------------------------------------------------------------

B----------------------------20-----------------17-----------------------------------------------------------

G--17--------------------------------------------------------------------------------------------------------

D------------------------------------------------------------------------------------------------------------

A------------------------------------------------------------------------------------------------------------

E------------------------------------------------------------------------------------------------------------



E------------------------------------------------------------------------------------------------------------

B--12h13--------12-----------13fb--12--------12h13-----------------------------------------------------------

G------------------------------------------------------------------------------------------------------------

D------------------------------------------------------------------------------------------------------------

A------------------------------------------------------------------------------------------------------------

E------------------------------------------------------------------------------------------------------------

|

E------------------------------------------------------------------------------------------------------------

B------------------------------------------------------------------------------------------------------------

G--12h14--------12-----------14----12--------12h14-----------------------------------------------------------

D------------------------------------------------------------------------------------------------------------

A------------------------------------------------------------------------------------------------------------

E------------------------------------------------------------------------------------------------------------

|______________________________

 

______________________________

|   

E--5------------5------------3-----3------------1------------------------------------------------------------

B--5------------5------------3-----3------------1------------------------------------------------------------

G--5------------5------------0-----0------------2------------------------------------------------------------

D--7------------7------------0-----0------------3------------------------------------------------------------

A--7------------7------------2-----2------------3------------------------------------------------------------

E--5------------5------------3-----3------------1------------------------------------------------------------

|

E------------------------------------------------------------------------------------------------------------

B----------------------------20-----------------17-----------------------------------------------------------

G--17--------------------------------------------------------------------------------------------------------

D------------------------------------------------------------------------------------------------------------

A------------------------------------------------------------------------------------------------------------

E------------------------------------------------------------------------------------------------------------



E------------------------------------------------------------------------------------------------------------

B--12h13--------12-----------13fb--12--------12h13----------------------------------\------------------------

G------------------------------------------------------------------------------------------------------------

D------------------------------------------------------------------------------------------------------------

A------------------------------------------------------------------------------------------------------------

E------------------------------------------------------------------------------------------------------------

|

E------------------------------------------------------------------------------------------------------------

B------------------------------------------------------------------------------------------------------------

G--12h14--------12-----------14----12--------12h14----------------------------------\------------------------

D------------------------------------------------------------------------------------------------------------

A------------------------------------------------------------------------------------------------------------

E------------------------------------------------------------------------------------------------------------

|______________________________

 

Arrangement

 

Intro

Fig. 1

Verse

Fig. 2

Fig. 3

Fig. 2

Bridge

Fig. 4

Chorus

Fig. 5

Verse + lead parts

Fig. 2 + Fig. 6

Fig. 3 + Fig. 7

Fig. 2 + Fig 8

Bridge 2

Fig. 9

Chorus 2

Fig. 10

Solo

Fig. 11

Verse 3

Fig. 12

Bridge

Fig. 13

Chorus 3 (end)

Fig. 14

Linkback: https://www.buyuknet.com/red-hot-chili-peppers-strip-my-mind-t29171.0.html

Etiket:
 

Bu bilgi size yardimci oldu mu?

EvetHayır
Red Hot Chili Peppers - Strip My Mind
Red Hot Chili Peppers - Strip My Mind
(Ortalama: 5 üzerinden 2.5 - 2 Oy)
2
Red Hot Chili Peppers - Strip My Mind

Red Hot Chili Peppers - Strip My Mind »Band: Red Hot Chili Peppers Song: Strip My Mind Album: Stadium Arcadium disc 1 ('Jupiter') Fig. 1 (Intro)    Am