Red Hot Chili Peppers - Suck My Kiss

Buyuknet15.10.2010 - 01:59 |
 Riff 1 (2x)

:----------------------------------------------------

:----------------------------------------------------

:----0-----------0-----------0-------------------7s99

:----0-----------0-----------0---------3333s5s777----

:----1-----------1-----------1-----3s55--------------

:1-3---1-3---1-3---1-3---1-3---1-3-------------------

 

Riff 2

:---------------------------

:---------------------------

:---------------------------

:---------------------------

:---------------------1h3p1-

:1-3-3-1-3--1-3-3-1-3------1

 

Riff 3

:--4---3--67

:--4---3--67

:-----------

:3---4---5--

:3---4---5--

:-----------

 

Riff 4

:-----333--------333-----------333-----

:-----333-22-----333-22-3b0----333-22--

:--11-424-22--11-424-22-4b0-11-424-22--

:1-22-----22--22-----22-----22-----22-1

:0-22-----00--22-----00-----22-----00-0

:--00---------00------------00---------

Linkback: https://www.buyuknet.com/red-hot-chili-peppers-suck-my-kiss-t29169.0.html

Etiket:
 

Bu bilgi size yardimci oldu mu?

EvetHayır
Red Hot Chili Peppers - Suck My Kiss
Red Hot Chili Peppers - Suck My Kiss
(Ortalama: 5 üzerinden 2.5 - 2 Oy)
2
Red Hot Chili Peppers - Suck My Kiss

Red Hot Chili Peppers - Suck My Kiss » Riff 1 (2x) :---------------------------------------------------- :----------------------------------------------------