Red Hot Chili Peppers - Tear

Buyuknet15.10.2010 - 01:59 |
Intro: (played with piano)

E|-------------------------------- |

B|--5~----3~----1----------------- |

G|--5~----4~----2----------------- |

D|--5~----5~----2----------------- |

A|-3------5~---0------------------ |

E|-------3------------------------ |

 

 

Solo:

 

2:16

 

E|----------------------------------------------------------------------------- |

B|----------------------------------------------------------------------------- |

G|----9-10-12-10-9---------------------------9------------9------------9------- |

D|--10------------10---9-10-12-10-9--9---7-10-----9p8p7-10-----9p8p7-10-------- |

A|-------------------10------------10------------------------------------------ |

E|----------------------------------------------------------------------------- |

 

con't

 

E|----------------------------------------------------------------------------- |

B|----------------------------------------------------------------------------- |

G|----------9------------9--------------9-10-12-10-9---------9-10-9------------ |

D|--9p8p7-10-----9p8p7-10----9p8p7----10------------10---9-10-------10--------9 |

A|-----------------------------------------------------10-------------10-7-10-- |

E|----------------------------------------------------------------------------- |

 

con't

 

E|----------------------------------------------------------------------------- |

B|---------------------------------------------------------5------------------- |

G|----------9------------9------------9------------9----7--5------------------- |

D|--9p8p7-10-----9p8p7-10-----9p8p7-10-----9p8p7-10-----9---------------------- |

A|----------------------------------------------------------------------------- |

E|----------------------------------------------------------------------------- |

 

 

3:46  (the trumpet part)~for guitar

 

E|------------------------------------- |

B|--10-12-12/15-12-10---15b--13--10---- |  REPEAT   

G|------------------------------------- |

D|------------------------------------- |

A|------------------------------------- |

E|------------------------------------- |

Linkback: https://www.buyuknet.com/red-hot-chili-peppers-tear-t29168.0.html

Etiket:
 

Bu bilgi size yardimci oldu mu?

EvetHayır
Red Hot Chili Peppers - Tear
Red Hot Chili Peppers - Tear
(Ortalama: 5 üzerinden 2.5 - 2 Oy)
2
Red Hot Chili Peppers - Tear

Red Hot Chili Peppers - Tear »Intro: (played with piano) E|-------------------------------- | B|--5~----3~----1----------------- | G|--5~----4~----2----------------- |